Clash - London Calling Chords & Tabs

 

London Calling Chords & Tabs

Clash Chords & Tabs

Version: 3 Type: Bass Tab 1 rating
1 star 2 stars 3 stars 4 stars 5 stars
comments

London Calling Bass Tab

Song: London calling
Artists: The Clash

Intro 
G---------------------------------------
D-----------------10--------------------
A--2/-7---10-7-10-----2/-7---10-7-10----
E------------------------------------8--
[ Tab from: http://www.guitartabs.cc/tabs/c/clash/london_calling_btab_ver_3.html ]
Verse
G----------------------------------
D----2--------3--------------------
A--2----202-------202------202-----
E----------------------3--------3--

Chorus
G---------------------- x4 G-------------- x2
D--0-2-2-22--4-5-5-55--    D--------------
A----------------------    A--5--4--3--2--
E----------------------    E--------------

the rhythm is easy to figure out

this is my first tab so it is probably a bit out sorry!

gitmunk
Comments