Clash - London Calling Chords & Tabs

 

London Calling Chords & Tabs

Clash Chords & Tabs

Version: 10 Type: Bass Tab 0 ratings
1 star 2 stars 3 stars 4 stars 5 stars
comments

London Calling Bass Tab

-Intro-
G|----------------------------------------------------------------------------|
D|--------------10*---------------------------------10*-----------------------|
A|-2/7*--10-7-10-----2/7*--10-7-10-----2/7*--10-7-10-----2/7*--10-7-10-----2/-|
E|---------------------------------8*----------------------------------8*-----|

-Verse-
G|--------------------------------------|
D|--------------------------------------|
A|-7-7-------8-8------------------------| (x4)
E|-----7-567-----7-567-3-3-7-567-3-3--7-|

-Chorus-
G|-----------------------------------------------|
D|-----------------------------------------------|
A|-7-7-7-9-10-10-10-10----7-7-7-9-10-10-10-10----|
E|---------------------10---------------------10-|
[ Tab from: http://www.guitartabs.cc/tabs/c/clash/london_calling_btab_ver_10.html ]
G|-------------------------------------------------|
D|-------------------------------------------------|
A|7-7-7-9-10-10-10-10----7-7-7-7-------------------|
E|--------------------10---------10-9-8-7-10-9-8-7-|

-Verse- (x4)
-Chorus-

-Interlude-
G|-------------------------------------|
D|-----------10*-----------------------|
A|7*--10-7-10-----2/7*--10-7-10-----2/-| (x2)
E|------------------------------8*-----|

-Solo-
G|--------------------------------------|
D|--------------------------------------|
A|-7-7-------8-8------------------------| (x2)
E|-----7-567-----7-567-3-3-7-567-3-3--7-|

-Chorus- 
-Outro-
G|-----------------------------------|
D|-----------------------------------|
A|-3-3---7-7-7--------------------2/-|
E|-----------------------------------|
Comments