Clash - Listen Chords & Tabs

 

Listen Chords & Tabs

Clash Chords & Tabs

Version: 2 Type: Bass Tab 0 ratings
1 star 2 stars 3 stars 4 stars 5 stars
comments

Listen Bass Tab

Listen Bass Tablature
by the clash
Transcribed by: Andrew Schmidt (jamesjschmidt@worldnet.att.net)

(solo bass)
G---------------------------------------------------------------------------
D-------------------------------------------------14-14-14---------14-14-14-
A---------------------------------------------------------------------------
E--0^5-0--5-5--5-7-7--7-9-9--9-10-10-10^12-12-12-----------12-12-12---------

(drums come in)
G---------------------------------------------------------------------------
D-------------------------------------------14-14-14---------14-14-14-------
A---------------------------------------------------------------------------
E--5-5--5-7-7--7-9-9--9-10-10-10^12-12-12-----------12-12-12----------------
[ Tab from: http://www.guitartabs.cc/tabs/c/clash/listen_btab_ver_2.html ]
(guitar comes in)
G---------------------------------------------------------------------------
D-------------------------------------------14-14-14---------14-14-14-------
A---------------------------------------------------------------------------
E--5-5--5-7-7--7-9-9--9-10-10-10^12-12-12-----------12-12-12----------------

Play this 2 more times until the chord change, which goes...
(straight notes)

G---------------------------------------------------------------------------
D---------------------------------------------------------------------------
A--5-5-5-5-5-5-5-5-0-0-0-0-0-0-0-0-5-5-5-5-5-5-5-5-0-0-0-0-0-0-0-0----------
E---------------------------------------------------------------------------


G---------------------------------------------------------------------------
D---------------------------------------------------------------------------
A--5-5-5-5-5-5-5-5-0-0-0-0-0-0-0-0-7-7-7-7-7-7-7-7-7-7-7-7-7-7-7-7----------
E---------------------------------------------------------------------------

Then back to the original pattern. 
You can fool around on that last part sliding from 5 to 7 to embellish...

Comments