Clash - Jimmy Jazz Chords & Tabs

 

Jimmy Jazz Chords & Tabs

Clash Chords & Tabs

Version: 1 Type: Chords 0 ratings
1 star 2 stars 3 stars 4 stars 5 stars
comments

Jimmy Jazz Chords

   
This song RULES!!

Band: The Clash

Album: London Calling

You'll need a sort of wah-wah kinda thing. It sounds pretty good without
one but you need it if you're going for authenticity.

Chords:

       A   F#m   E      D    
e|---0---2-------0-----2------|
B|---2---2-------0-----3------|
G|---2---2-------1-----2------|
D|---2---4-------2-----0------|
A|---0---4-------2------------|
E|-------2-------0------------|

Chord Progression:
A (x3) / F#m (x3) / A (x3) / D (x3) / A (x3) / E (x3) / A / D / A / E
[ Tab from: http://www.guitartabs.cc/tabs/c/clash/jimmy_jazz_crd.html ]
The strumming is sorta wierd on this song...
Just listen to it and you'll figure it out on your own.

Solo:

E----------------------------------------------5s0--------
B-----------------2---2-------2-2-2-2h0---5b-5-----3-1----
G------2///14-2-2---2-------2-----------2---------------2-
D-2s4-------------------2s4-------------------------------
A---------------------------------------------------------
E---------------------------------------------------------

E-----------------------------0-2-5-9-12-9-12-9s7-9-7-5----
B-1-3-5-3-1----------------1b2-----------------------------
G----------------2-2-----2---------------------------------
D------------2s4-----2s4-----------------------------------
A----------------------------------------------------------
E----------------------------------------------------------
Comments