Clash - Im So Bored With The Usa Chords & Tabs

 

Im So Bored With The Usa Chords & Tabs

Clash Chords & Tabs

Version: 1 Type: Tab 0 ratings
1 star 2 stars 3 stars 4 stars 5 stars
comments

Im So Bored With The Usa Tab

   
Clash - I'm so bored with the USA
Tabbed By: aleatorik
EMail: aleatorik@web.de
(Strummer/Jones)


(X4)
E---------------------------------------------------------
B---------------------------------------------------------
G---------------------------------------------------------
D------------------------------------9---9----------------
A-----------------7---7-----------------------------------
E-------0---0---------------0---0-------------------------


E---------------------------------------------------------
B-------9---9-----7---9---7----9---7----9----9---9---9----
G-------9---9-----7---9---7----9---7----9----9---9---9----
D-------9---9-----7---9---7----9---7----9----9---9---9----
A-------7---7-----7---7---7----7---7----7----7---7---7----
E-------7---7--------------------7---7----7---------------


E------12-----10-----12-----10---/--12--------------
B------12-----10-----12-----10---/--12--------------
G------13-----11-----13-----11---/--13--------------
D------14-----12-----14-----12---/--14--------------
A---------------------------------------------------
E---------------------------------------------------

[ Tab from: http://www.guitartabs.cc/tabs/c/clash/im_so_bored_with_the_usa_tab.html ]
E------------5---5--------5----------5---------------
B------------5------5---5---5----------5-------------
G------------6--------6--------6^7------7^6----------
D------------7-----------------------------------7---
A----------------------------------------------------
E----------------------------------------------------

Chorus  C5-----B5-----A5-----G5-----A5

Verse E---A---E---A...

E
Yankee soldier  
He wanna shoot some skag
   A
He meet it in Cambodia
        E
But now he can't afford a bag

E
Yankee dollar talk
To the dictators of the world
   A
In fact it's giving orders
         E
An' they can't afford to miss a word

C                     A
I'm so bored with the U...S...A...
                 E
But what can I do?

Yankee detectives
Are always on the TV
'Cos killers in America
Work seven days a week

Never mind the stars and stripes
Let's print the Watergate Tapes
I'll salute the New Wave
And I hope nobody escapes

I'm so bored with the U...S...A...
But what can I do?

Move up Starsky  
For the C.I.A.
Suck on Kojak
For the USA
Comments