Clash - I Fought The Law Chords & Tabs

 

I Fought The Law Chords & Tabs

Clash Chords & Tabs

Version: 5 Type: Tab

I Fought The Law Tab

   
-----------------------------------------------------------------------------
		         I Fought The Law - The Clash
-----------------------------------------------------------------------------
Tabbed by: Lloyd Brown
Email: Greendayrule3@hotmail.com
Tuning:E,A,D,G,B,E

Chords:
    D           G          F#m          A
e|--2--     e|--3--     e|--2--     e|-----|
B|--3--     B|--3--     B|--2--     B|-----|
G|--2--     G|--x--     G|--3--     G|--2--|
D|-----     D|--x--     D|--4--     D|--2--|
A|-----     A|--2--     A|--4--     A|--0--|
E|-----     E|--3--     E|--2--     E|-----|


Intro
e|--------------------------------------------------------------------------|
B|-10----10-10----10----10-10----10----10-10----10----10-10----10----10-10--|
G|-12^---12^12^---12^---12^12^---12^---12^12^---12^---12^12^---12^---12^12^-|
D|--------------------------------------------------------------------------|
A|--------------------------------------------------------------------------|
E|--------------------------------------------------------------------------|

e|-------------------------------------------------------------|
B|-10----10-10-------------------------------------------------|
G|-12^---12^12^--12/14-12-11-----------------------------------|
D|---------------------------12--------------------------------|
A|-------------------------------------------------------------|
E|-------------------------------------------------------------|

The intro repeats twice, then verse 1:

D        D           G    D
Breakin' rocks in the hot sun

D            D           G   D
I fought the law and the law won

D            D           G   D
I fought the law and the law won

D        D           G      D
I needed money 'cause I had none

D            D           G   D
I fought the law and the law won

D            D           G   D
I fought the law and the law won
[ Tab from: http://www.guitartabs.cc/tabs/c/clash/i_fought_the_law_tab_ver_5.html ]
  G                                             2nd Guitar Plays This
I left my baby and it feels so bad         behind guitar 1 in these 3 Lines
                                              e|---5-------5----------|
                                              B|-------3-------3---7--|
D                                             G|----------------------|
i Guess my race is run                        D|----------------------|
                                              A|----------------------|
G                                             E|----------------------|
She the best girl that I ever had

D                        G   D
I fought the law and the law won

D                       A G F#m D
I fought the law and the

Solo
e|----------------------------------14--|
B|----------------------------12-15-----|
G|-------------11h12-11h12-14-----------| x 3 1/2
D|-------12h14--------------------------|
A|-12h14--------------------------------|
E|--------------------------------------|

Intro x1

verse 2

D                     G
Robbing people with a six gun

D            D           G   D
I fought the law and the law won

D            D           G   D
I fought the law and the law won

D                  G         D
I lost my girl and i lost my fun

D            D           G   D
I fought the law and the law won

D            D           G   D
I fought the law and the law won
                                                2nd Guitar Plays This
 G                                       behind guitar 1 in these 3 Lines
I left my baby and it feels so bad            e|---5-------5----------|
                                              B|-------3-------3---7--|
D                                             G|----------------------|
i Guess my race is run                        D|----------------------|
                                              A|----------------------|
G                                             E|----------------------|
She the best girl that I ever had

D                        G   D
I fought the law and the law won

D                       A G F#m D
I fought the law and the

Intro x 2

Outro

I fought the law and the law won

I fought the law and the law won

I fought the law and the law won

I fought the law and the law won

(Bass Enters)
I fought the law and the law won

I fought the law and the law won

               (Guitar) A G F#m D
I fought the law and the


Any Questions or comments about this tab please feel free to e-mail me on the adress:
greendayrule3@hotmail.com Check out my band we are purely a cover bnd covering the old
classics and up to date songs check us out on www.myspace.com/thedeadstrums.
Hope You All Enjoy.
Lloyd x