Clash - Hateful Chords & Tabs

 

Hateful Chords & Tabs

Clash Chords & Tabs

Version: 1 Type: Tab 0 ratings
1 star 2 stars 3 stars 4 stars 5 stars
comments

Hateful Tab

The Clash	
Hateful



Intro: organ
e|-------------------------------------------------------------------------------------------|
B|----8-8-8-8-8-8-8----------8-8-8-8-8-8-8-----------8-8-8-8-8-10-8------8-8-8-8-8-8-8-------|
G|--9---------------9-7----9---------------9-------9-------------------9---------------9-----|
D|-------------------------------------------10------------------------------------------10--|
A|-------------------------------------------------------------------------------------------|
E|-------------------------------------------------------------------------------------------|

e|----|--------------------------------------------------x2|
B|----|----------------------------------------------------|
G|-44-|-5-x-5-x-55-x-4-x-4-x-44-x-5-x-5-x-55-x-7-x-7-x-77--|
D|-44-|-5-x-5-x-55-x-5-x-5-x-55-x-3-x-3-x-33-x-7-x-7-x-77--|
A|-22-|-3-x-3-x-33-x-2-x-2-x-22-x---x---x----x-5-x-5-x-55--|
E|----|----------------------------------------------------|
[ Tab from: http://www.guitartabs.cc/tabs/c/clash/hateful_tab.html ]
Verse:
e|----------------------------------------------------|
B|----------------------------------------------------|
G|-5-x-5-x-55-x-5-x-5-x-55-x-2-x-2-x-22-x-2-x-2-x-22--|
D|-5-x-5-x-55-x-5-x-5-x-55-x-2-x-2-x-22-x-2-x-2-x-22--|
A|-3-x-3-x-33-x-3-x-3-x-33-x-0-x-0-x-00-x-0-x-0-x-00--|
E|----------------------------------------------------|

e|----------------------------------------------------|
B|----------------------------------------------------|
G|-5-x-5-x-55-x-5-x-5-x-55-x---x---x----x---x---x-----|
D|-5-x-5-x-55-x-5-x-5-x-55-x-5-x-5-x-55-x-5-x-5-x-55--|
A|-3-x-3-x-33-x-3-x-3-x-33-x-5-x-5-x-55-x-5-x-5-x-55--|
E|---------------------------3---3---33---3---3---33--|

Chorus:
e|-------------0---x4|---------------------------2--0---------------|
B|---1--1---11-0-1---|---------------------------3--1---------------|
G|---0--0---22---2---|--5-x-5-x-55-x-5-x-5-x-55--4--2---------------|
D|---2--2---22---2---|--5-x-5-x-55-x-5-x-5-x-55--4--2-----22-33-44--|
A|--3--2--0----------|--3-x-3-x-33-x-3-x-3-x-33--2--0--55-00-11-22--|
E|-------------------|---------------------------------33-----------|

Verse
Chorus

Solo:
B|--8-88-88--88-----8/5-5---5-5---8-88-88--88------8/3-----3----------8--|
G|--8-55-88--88--55-8/5-22--5-22--8-55-88--88--55--8/4-00--4--00---------|

Chorus
Verse

Chorus:
e|-------------0---x10|-----|
B|---1--1---11-0-1----|-----|
G|---0--0---22---2----|---5-|
D|---2--2---22---2----|-5-5-|
A|--3--2--0-----------|-5-3-|
E|--------------------|-3---|

END
Comments