Clash - Hate And War Chords & Tabs

 

Hate And War Chords & Tabs

Clash Chords & Tabs

Version: 2 Type: Bass Tab 0 ratings
1 star 2 stars 3 stars 4 stars 5 stars
comments

Hate And War Bass Tab

Hate and War Bass Tablature
by the clash
Transcribed By Sam Oglethorpe (sogletho@surf.its.bond.edu.au)

Fairly simple to play, with the verses and pre-choruses involving
scaley bits but I'm not too sure about the verse. While I think
most of the notes are correct, listen to the song to get the
correct rhythm. Any suggestions or corrections are welcome.

Intro & Chorus

G---------------|-----------------|
D---------------|-----------------|
A-3-------------|-3------3-3-3----|2x
E---------3-----|---------------1-|

Verse 1

G-------------------------|
D-55-33-22-33-22-00-------|
A-------------------33----|
E----------------------33-|

The "Hate,Hate , Hate, Hate..." part

G------------------------|
D------------------------|
A-3-3-3-3-3-3-3-3----3333|
E------------------------|

Verse 2

Pre-chorus"
[ Tab from: http://www.guitartabs.cc/tabs/c/clash/hate_and_war_btab_ver_2.html ]
I'm gonna stayin the city..."

G----------------------------|
D----------------------------|
A-------------------/3-3-----|
E-1111111111111111-------3-3-|


"I don'tdream of a holiday"

G---------------------|-------------------------|
D-3--3-2--2-0--0------|-------------00-22-33-55-|
A----------------3--3-|----00-22-33-------------|
E---------------------|-33----------------------|

Chorus

Verse 3

Pre-chorus

Chorus

Outro Chorus

G---------------------------------------------------------|
D---------------------------------------------02----320---|
A-3-3-3-3-3-3-3-3-----------------3-3-3-3-3-3-----------3-|
E-----------------3-3-3-3-3-3-3-3-------------------------|

(repeat 3x,then at the end of the 4th time, play:)

G--------------------|
D--------------------|
A------------------3-|
E-3------------------|

Comments