Clash - Deny Chords & Tabs

 

Deny Chords & Tabs

Clash Chords & Tabs

Version: 1 Type: Bass Tab 0 ratings
1 star 2 stars 3 stars 4 stars 5 stars
comments

Deny Bass Tab

Intro

E---5555555555555555555555555555555-------------------|
A-----------------------------------------------------|
D-----------------------------------------------------|
G-----------------------------------------------------|

Chorus-"Deny, you're such a liar"
E-----------------------------------------------------|
A----55~5-33~3-1/222--1/222--1/222--------------------|
D-----------------------------------------------------|
G-----------------------------------------------------|

       "Sellin' your no no all the time"
E---5-------------------------------------------------|
A-----44-55-66-77------------5------------------------|
D-----------------44-55-77-----44-55-66-77------------|
G------------------------------------------44-55-77---|
[ Tab from: http://www.guitartabs.cc/tabs/c/clash/deny_btab.html ]
    "And you said we were going out to the 100 club"
E---7~~~3~~~7~~~3~~~7~~~3~~~--------------------------|
A---00000000000000000000000000000000------------------|
D-----------------------------------------------------|
G-----------------------------------------------------|

Outro
E-----------------------------------------------------|
A---555555--333333--1/222-1/222-1/222---2-3-4---------|
D-----------------------------------------------------|
G-----------------------------------------------------|

repeat outro untill end.

 KEY- /=slide to next note
      ~=let ring

I tabbed this out without my bass so I had to do it all in my head. I hope its correct 
sure it is). The Clash is my favorite band and I've been playing bass for almost two 
now.I hope whoever is using this likes The Clash as much as I do. Have fun and keep rockin'!
Comments