Clash - Complete Control Chords & Tabs

 

Complete Control Chords & Tabs

Clash Chords & Tabs

Version: 1 Type: Bass Tab 0 ratings
1 star 2 stars 3 stars 4 stars 5 stars
comments

Complete Control Bass Tab

song: Complete control
author: The Clash
bass tabber: bOldra@tiscali.it (change b0ldra to boldra)
It's my interpretation of song. No commercial use!
INTRO
----------------------------------
----------------------------------
7--------7--7---------444455556666
---5--7--------5--7777------------
                                                                                          
VERSE
-------------------------------
----------6-9------------------
7777777777-------------77777777
---------------77777777--------
                                                                                          
BRIDGE
-------------------------------------------
-------------------------------------------
4-44p2------7-77p5-4-44p2------444455556666
------5-7-77-------------5-7777------------
                                                                                          
SOLO
Do the verse part X2 then:
------------------------------------------------
------------------------------------------------
4-44--------------------4-44----7777777777777777
----5-553333333333333333----5-55----------------
                                                                                          
FINAL PART
This part is mostly played by guitar..
---------------------
---------------------
-----4--------7------
---------------------
                                                                                          
FINAL FINAL PART
* means: play 8
---------------------
---------------------
-----4*4*5*---7*7*---
-7*5*------5*--------
[ Tab from: http://www.guitartabs.cc/tabs/c/clash/complete_control_btab.html ]
Comments