Clash - Clash City Rockers Chords & Tabs

 

Clash City Rockers Chords & Tabs

Clash Chords & Tabs

Version: 2 Type: Tab 0 ratings
1 star 2 stars 3 stars 4 stars 5 stars
comments

Clash City Rockers Tab

   
Artist:  The Clash
Song:  The Clash City Rockers
Tabbed by:  Rick (rickrack97)
AIM:  rickrack97

Chords:

A5  (577xxx)  C#m  (x4665x)
B5  (799xxx)  G#   (466xxx)
G5  (355xxx)
E2  (x799xx)
E5  (022xxx)


Intro/Verse:

E|---------------------------------------------------|
B|---------------------------------------------------|
G|-9--7-7-------------------9-9----------------------|
D|-9--7-7-7--5-5--9--7-7--9-9-9----------------------|
A|-7--5-5-7--5-5--9--7-7--9-7-7----------------------|
E|--------5--3-3--7--5-5--7--------------------------|


Chorus:  timing not correct
[ Tab from: http://www.guitartabs.cc/tabs/c/clash/clash_city_rockers_tab_ver_2.html ]
E|--------------------------------------------------------------|
B|-5-5-5-5-5-5-5-5----------------------------------------------|
G|-6-6-6-6-6-6-6-6--4-4-4-4-4-4-4-4-------------------9-----9-9-|
D|-6-6-6-6-6-6-6-6--4-4-4-4-4-4-4-4--7-7-7-7-7-7-7-7--9-9-9-9-9-|
A|-4-4-4-4-4-4-4-4--2-2-2-2-2-2-2-2--7-7-7-7-7-7-7-7--7-9-9-7-7-|
E|-----------------------------------5-5-5-5-5-5-5-5----7-7-----|


Bridge:

E|---------------------------------------------------|
B|---------------------------------------------------|
G|--------------9-9-9--------------------------------|
D|--7-7-7-9-9-9-9-9-9-7-7-7--7-7-7-6-6-6-4-4-4-2-2-2-|
A|--7-7-7-9-9-9-7-7-7-7-7-7--7-7-7-6-6-6-4-4-4-2-2-2-|
E|--5-5-5-7-7-7-------5-5-5--5-5-5-4-4-4-2-2-2-0-0-0-|

That's it.  Later.
Comments