Clarkson Kelly - Since U Been Gone Chords & Tabs

 

Since U Been Gone Chords & Tabs

Clarkson Kelly Chords & Tabs

Version: 1 Type: Tab 5 ratings
1 star 2 stars 3 stars 4 stars 5 stars
comments

Since U Been Gone Tab

Rlly Kool Song-all u gotta do is listen to the song to get the timing perfect

Intro
|---------------------------------------------------
|---------------------------------------------------
|---------------------------------------------------
|---------------------------------------------------
|--2-2-2-2-2-2-2------------------------------------
|--3-3-3-3-3-3-3------------------------------------

verse
|---------------------------------------------------
|---------------------------------------------------
|---------------------------------------------------
|----------2-2--------------------------------------
|-2-2-2----3-3----2-2-2----2-2----------------------
|-3-3-3-----------0-0-0----1-1---------------------- play intro 5x 

come in 2nd guitar at :34 and play along with intro	
|--7--7--7--7--7--7--7--7--7--7--7--7---------------
|---------------------------------------------------
|---------------------------------------------------
|---------------------------------------------------
|---------------------------------------------------
|---------------------------------------------------

lead in into chorus after 5x intro (played for like 2-3 sec)
|---------------------------------------------------
|---------------------------------------------------
|---------------------------------------------------
|---------------------------------------------------
|--2------------------------------------------------
|--3------------------------------------------------

Chorus
|--------------------------------------------------
|--------------------------------------------------
|--------------------------------------------------
|--4-4-4-5-5-5-5-----------------------------------
|--2-2-2-3-3-3-3-5-5-5-5-5-5-5-5-------------------
|----------------3-3-3-3-3-3-3-3-------------------

|--------------------------------------------------
|--------------------------------------------------
|--------------------------------------------------
|--4-4-4-5-5-5-5-----------------------------------
|--2-2-2-3-3-3-3-5-5-5-5-5-5-5-5-------------------
|----------------3-3-3-3-3-3-3-3-------------------

|--------------------------------------------------
|--------------------------------------------------
|--------------------------------------------------
|----------5-5-5-5---------------------------------
|--2-2-2-2-3-3-3-3-5-5-5-5-5-5-5-5-----------------
|--0-0-0-0---------3-3-3-3-3-3-3-3-----------------

|--------------------------------------------------
|--------------------------------------------------
|--------------------------------------------------
|--2-2-2-2-2-2-2-2-----------------------7-7-7-7-7-
|--0-0-0-0-0-0-0-0-2-2-2-2-2-2-2-2-------5-5-5-5-5-
|------------------0-0-0-0-0-0-0-0-----------------

2nd verse
|---------------------------------------------------
|---------------------------------------------------
|---------------------------------------------------
|----------2-2--------------------------------------
|-2-2-2----3-3----2-2-2----2-2----------------------
|-3-3-3-----------0-0-0----1-1----------------------

2nd guitar play along with the verse till the chorus
|---3-3-3--3-3---3-3--5-------------------------------
|---------------------------------------------------
|---------------------------------------------------
|---------------------------------------------------
|---------------------------------------------------
|---------------------------------------------------

at (1:20) another guitar comes in and plays this until the chorus as well
|--7---7---7---7---7---7---7---7---7---7---7--------
|---------------------------------------------------
|---------------------------------------------------
|---------------------------------------------------
|---------------------------------------------------
|---------------------------------------------------

Lead in into 2nd chorus (1:32) (pretty sure abt this)
|---------------------------------------------------
|---------------------------------------------------
|----11--12---11--12--------------------------------
|----x---x----x---x---------------------------------
|----9---10---9---10--------------------------------
|---------------------------------------------------
  pm......pm......pm.....pm	

Chorus
|--------------------------------------------------
|--------------------------------------------------
|--------------------------------------------------
|--4-4-4-5-5-5-5-----------------------------------
|--2-2-2-3-3-3-3-5-5-5-5-5-5-5-5-------------------
|----------------3-3-3-3-3-3-3-3-------------------

|--------------------------------------------------
|--------------------------------------------------
|--------------------------------------------------
|--4-4-4-5-5-5-5-----------------------------------
|--2-2-2-3-3-3-3-5-5-5-5-5-5-5-5-------------------
|----------------3-3-3-3-3-3-3-3-------------------
[ Tab from: http://www.guitartabs.cc/tabs/c/clarkson_kelly/since_u_been_gone_tab.html ]
|--------------------------------------------------
|--------------------------------------------------
|--------------------------------------------------
|----------5-5-5-5---------------------------------
|--2-2-2-2-3-3-3-3-5-5-5-5-5-5-5-5-----------------
|--0-0-0-0---------3-3-3-3-3-3-3-3-----------------

|--------------------------------------------------
|--------------------------------------------------
|--------------------------------------------------
|--2-2-2-2-2-2-2-2-----------------------7-7-7-7-7-
|--0-0-0-0-0-0-0-0-2-2-2-2-2-2-2-2-------5-5-5-5-5-
|------------------0-0-0-0-0-0-0-0-----------------

Bridge part 1
|------------------------------------------------------------
|------------------------------------------------------------
|------------------------------------------------------------
|-------4-4-4---------4-4-4-------------4-4----4-4---4-4-4---
|5-5-5--2-2-2--5-5-5--2-2-2--5-5-5--2-2-----2-2------2-2-2---
|3-3-3---------3-3-3---------3-3-3---------------------------
	                           pm..............

Bridge part 2 (lightly distorted)
|----------------------------------------------------
|----------------------------------------------------
|----------------------------------------------------
|-4-4-5-xx-12-12-12-12-------------------------------
|-2-2-3-xx-10-10-10-10-------------------------------
|---------------------------------------------------- 4x

Chorus- this time a lil differnt (play till end)
|--------------------------------------------------
|--------------------------------------------------
|--------------------------------------------------
|--4-4-4--5-5-5-5----------------------------------
|--2-2-2--3-3-3-3--5-5-5-5-5-5-5-5-----------------
|------------------3-3-3-3-3-3-3-3-----------------

|--------------------------------------------------
|--------------------------------------------------
|--------------------------------------------------
|--4-4-4--5-5-5-5----------------------------------
|--2-2-2--3-3-3-3--5-5-5-5-5-5-5-5-----------------
|------------------3-3-3-3-3-3-3-3-----------------

|--------------------------------------------------
|--------------------------------------------------
|--------------------------------------------------
|-----------5-5-5-5--------------------------------
|--2-2-2-2--3-3-3-3--5-5-5-5-5-5-5-5---------------
|--0-0-0-0-----------3-3-3-3-3-3-3-3---------------

|--------------------------------------------------
|--------------------------------------------------
|--------------------------------------------------
|-2-2-2-2-2-2-2-2----------------------------------
|-0-0-0-0-0-0-0-0---2-2-2-2-2-2-2-2----------------
|-------------------0-0-0-0-0-0-0-0----------------

|--------------------------------------------------
|--------------------------------------------------
|--------------------------------------------------
|--4-4-4--5-5-5-5----------------------------------
|--2-2-2--3-3-3-3--5-5-5-5-5-5-5-5-----------------
|------------------3-3-3-3-3-3-3-3-----------------

|--------------------------------------------------
|--------------------------------------------------
|--------------------------------------------------
|--4-4-4--5-5-5-5----------------------------------
|--2-2-2--3-3-3-3--5-5-5-5-5-5-5-5-----------------
|------------------3-3-3-3-3-3-3-3-----------------

|--------------------------------------------------
|--------------------------------------------------
|--------------------------------------------------
|-----------5-5-5-5--------------------------------
|--2-2-2-2--3-3-3-3--5-5-5-5-5-5-5-5---------------
|--0-0-0-0-----------3-3-3-3-3-3-3-3---------------

|--------------------------------------------------
|--------------------------------------------------
|--------------------------------------------------
|-2-2-2-2-2-2-2-2----------------------------------
|-0-0-0-0-0-0-0-0---2-2-2-2-2-2-2-2----------------
|-------------------0-0-0-0-0-0-0-0----------------

|--------------------------------------------------
|--------------------------------------------------
|--------------------------------------------------
|-2-2-2-2-2-2-2-2----------------------------------
|-0-0-0-0-0-0-0-0---2-2-2-2-2-2-2-2----------------
|-------------------0-0-0-0-0-0-0-0----------------

|--------------------------------------------------
|--------------------------------------------------
|--------------------------------------------------
|-7-7-7-7-7-7--------5~----------------------------
|-5-5-5-5-5-5--------3~----------------------------
|--------------------------------------------------

End on this
|--------------------------------------------------
|--------------------------------------------------
|--------------------------------------------------
|--------------------------------------------------
|-2-2-2-2-2----------------------------------------
|-3-3-3-3-3----------------------------------------

Comments