Clarks - Better Off Without You Chords & Tabs

 

Better Off Without You Chords & Tabs

Clarks Chords & Tabs

Version: 2 Type: Tab 0 ratings
1 star 2 stars 3 stars 4 stars 5 stars
comments

Better Off Without You Tab

I saw that no one anywhere has this solo so I decided to do it myself and I think it sounds pretty good
Use a wah pedal for this
[ Tab from: http://www.guitartabs.cc/tabs/c/clarks/better_off_without_you_tab_ver_2.html ]
e|--------------------------------------------------|
B|---------5b6--------------------------------------|
G|--4b5-2------6-----6-4-2-4b----4b5-6-4-2----2-4-2-|
D|------------------------------------------4-------|
A|--------------------------------------------------|
E|--------------------------------------------------|

e|--5h9p5--5h7p5--5h9p5--5h7p5--5h9p5--5h7p5--7b9-7--5------|
B|-----------------------------------------------------5--3-|
G|----------------------------------------------------------|
D|----------------------------------------------------------|
A|----------------------------------------------------------|
E|----------------------------------------------------------|
Comments