Clapton Eric - Tears In Heaven Chords & Tabs

 

Tears In Heaven Chords & Tabs

Clapton Eric Chords & Tabs

Version: 4 Type: Tab 0 ratings
1 star 2 stars 3 stars 4 stars 5 stars
comments

Tears In Heaven Tab

   
Eric Clapton – Tears in Heaven
by: gonza
gserradasduarte@hotmail.com

Intro and end x2
E|-------------------------------------0----------0-------------------------------------------------------------
B|----------------------2h3p2----------0----------0-----2-------------2------------2-------------2--------------
G|------------------2------------2----------------------2-------------2------------2-------------2--------------
D|--------------------------------------------------------------------------------------------------------------
A|-----------0--------------------------------------------------------------------------------------------------
E|----0h2------------------------------4-----4----------2-------2-----------2------0-------0---------0----------

----------------------------------------------------------------------------------------------------------------|
----3-----------3-----------3--------------3-------------2------------2----------2------------------------------|
----2-----------2-----------2--------------1-------------2------------2----------2------------------------------|
----------------------------------------------------------------------------------------------------------------|
----------------------------------------------------------------------------------------------------------------|
----2------2---------2------0-------0------0------0------0------0---------0------0------------------------------|
[ Tab from: http://www.guitartabs.cc/tabs/c/clapton_eric/tears_in_heaven_tab_ver_4.html ]
Verses - Would you know my name...
                   A                        E                      F#m                       A
|------------------0------------------------0-----------------------2------------------------0------------------
|------------------2------------------------0-----------------------2------------------------2------------------
|------------2----------2-------------1----------1-------------2--------2--------------2-----------2------------
|---------------------------------------------------------------------------------------------------------------
|------0-----------------------2--------------------------------------------------0-----------------------------
|----------------------------------------------------------2----------------------------------------------------
                D                       A                           E            A        E
----------------2-----------------------0---------------------------0------------0--------0---------------------|
----------------3-----------------------2---------------------------0------------2--------0---------------------|
----------2----------2-------------2---------2-----------------1---------1-------2--------1---------------------|
----0-----------------------------------------------------------------------------------------------------------|
-----------------------------0----------------------------2----------------------0--------2---------------------|
----------------------------------------------------------------------------------------------------------------|

Bridge – I must be strong...
          F#m                    F#m                  C#                   C#                  A7
|----------2----------------------2-------------------1--------------------1-------------------0----------------
|----------2----------------------2-------------------2--------------------2-------------------2----------------
|------2-------2-------------2--------2-----------1-------1-----------1--------1----------0--------0------------
|-----------------------4----------------------------------------3----------------------------------------------
|----------------------------------------------4-------------------------------------0--------------------------
|--2------------------------------------------------------------------------------------------------------------

               A7                   F#                   F#                Bm                Bm
---------------0--------------------2--------------------2-----------------2-----------------2------------------
---------------2--------------------2--------------------2-----------------3-----------------3------------------
----------0--------0-----------3--------3-----------3--------3--------2--------2--------2--------2--------------
-----2------------------------------------------4------------------------------------4--------------------------
----------------------------------------------------------------------------------------------------------------
--------------------------2----------------------------------------2--------------------------------------------

---------------------------------------------------|
-----3-------3-------3-----------------------------|
-----2-------2-------2-----------------------------|             [ Intro ]
-----2-------2-------2-----------------------------|
-----2-------2-------2-----------------------------|
---------------------------------------------------|

This tab sounds very good. Play it softly.
See you soon,  Gonza
Comments