Clapton Eric - Sunshine Of Your Love Chords & Tabs

 

Sunshine Of Your Love Chords & Tabs

Clapton Eric Chords & Tabs

Version: 1 Type: Tab 0 ratings
1 star 2 stars 3 stars 4 stars 5 stars
comments

Sunshine Of Your Love Tab

this is one of the only songs i know how to do well, and i couldnt find a 
good tab for it, so i thought id do one. here goes!



E----------------------------------------------------------------------------
B----------------------------------------------------------------------------
G----------------------------------------------------------------------------
D--12--12--10--12--------------------------12--12--10--12--------------------
A------------------10/12--11--10------8-----------------------10/12--11--10--
E---------------------------------10-----10----------------------------------

E----------------------------------------------------------------------------
B----------------------------------------------------------------------------
G------------11--11---9--11---------------------10~~-------11--11---9--11----
D------------12--12--10--12-----------------12--------12---12--12--10--12----
A-----8----------------------10/12--11--10---------------------------------12
E-10-----10------------------------------------------------------------------

E----------------------------------------------------------------------------
B----------------------------------------------------------------------------
G-------------10~~-------11--11---9--11---------------------10~~-------11--11
D---------12--------12---12--12--10--12-----------------12--------12---12--12
A-11--10---------------------------------10/12--11--10-----------------------
E----------------------------------------------------------------------------
[ Tab from: http://www.guitartabs.cc/tabs/c/clapton_eric/sunshine_of_your_love_tab.html ]
E----------------------------------------------------------------------------
B----------------------------------------------------------------------------
G--9--11---------------------10~~--------------------------------------------
D-10--12-----------------12--------12--12--12--10--12--10/12--11--10------8~~
A---------10/12--11--10----------------10--10---8--10-----------------10-----
E----------------------------------------------------------------------------

E----------------------------------------------------------------------------
B----------------------------------------------------------------------------
G-------------------------------------------------11--11---9--11-------------
D-----12--12--10--12--10/12--11--10------8~~------12--12--10--12-------------
A-10--10--10---8--10-----------------10-------10------------------10/12--11--
E----------------------------------------------------------------------------

E----------------------------------------------------------------------------
B----------------------------------------------------------------------------
G--------------11--11---9--11---------------------10~~-----------------------
D--------------12--12--10--12-----------------12--------12----------5--------
A-10------8~~------------------10/12--11--10----------------7--7-7--3--5-----
E-----10----------------------------------------------------5--5-5-----3-----
    (you'll have to 
    play along with 
    the song a bit to
    figure out the 
    rhythm here)

E----------------------------------------------------------------------------
B----------------------------------------------------------------------------
G----------------------------------------------------------------------------
D---------5--------------5---------------------------------------------------
A-7--7-7--3--5---7--7-7--3--5---7--7-7--7-7--7-7--7-7--7-7--7-7--7-7--7------
E-5--5-5-----3---5--5-5-----3---5--5-5--5-5--5-5--5-5--5-5--5-5--5-5--5------

and then it goes back to the begining (since i dont know how to do repeat 
bars on notepad)
anyway, thats all for now. ill try and get back to you on that wonderful solo
Comments