Cky - Way You Lived Chords & Tabs

 

Way You Lived Chords & Tabs

Cky Chords & Tabs

Version: 2 Type: Tab 0 ratings
1 star 2 stars 3 stars 4 stars 5 stars
comments

Way You Lived Tab

-------------------------------------------------------------------------------
			     The Way You Lived - CKY 
-------------------------------------------------------------------------------
Tabbed by: Plastic man in hi-fi
Email:plasticman56@hotmail.com

Tuning: normal
[ Tab from: http://www.guitartabs.cc/tabs/c/cky/way_you_lived_tab_ver_2.html ]
e|---------------------------------------------------------------------------|
B|---------------------------------------------------------------------------|
G|---------------------------------------------------------------------------|
D|------------5h7----------------------------------5h7-----------------------|
A|--(7)---5h7----5h7(7)-------------------(7)---5h7----5h7(7)----------------|
E|--(5)-5--------------3h5(5)-------------(5)-5--------------3h5(5)----------|
     |                                     |
Anoth|er guitar hits a '7' in time with the| first chord on the second time,
then |on the third time it hits a lower '5'| in time with the first chord
e|---|-------------------------------------|---------------------------------|
B|---|-------------------------------------|---------------------------------|
G|---|-------------------------------------|---------------------------------|
D|---|-------------------------------------|---------------------------------|
A|--(7)------------------------------------|---------------------------------|
E|----------------------------------------(5)--------------------------------|
Comments