Cky - Tripled Manic State Chords & Tabs

 

Tripled Manic State Chords & Tabs

Cky Chords & Tabs

Version: 3 Type: Tab 0 ratings
1 star 2 stars 3 stars 4 stars 5 stars
comments

Tripled Manic State Tab

   
                               TRIPLED MANIC STATE
                               As recorded by CKY
                  (From the 2005 Album AN ANSWER CAN BE FOUND)

   Intro
    Fast Rock Q=188
    N.C.
   4/4
    Gtr I
    PM|    PM  PM|      PM--|    PM--|
    E E  E E E E E  E   E E E  E E E E E
||--------------------|------------------|
||o-------------------|------------------|
||------11---9-----11-|-------11-------9-|
||--------------------|------------------|
||o-------------------|------------------|
||--9-9----9---9-9----|-0-0-0----0-0-0---|
|
|   Gtr II
|   W                   W
||--------------------|------------------|
||o-------------------|------------------|
||--------------------|------------------|
||--------------------|------------------|
||o-------------------|------------------|
||--------------------|------------------|


  PM|    PM  PM|      PM
  E E  E E E E E  E   E  E E  E E E E  E
|-------------------|---------------------||
|-------------------|--------------------o||
|-----11---9-----11-|-----------8-9-------||
|-------------------|------9-11-----9-11--||
|-------------------|---11---------------o||
|-9-9----9---9-9----|-9-------------------||
|
| W                   E  E E  E E E E  E
|-------------------|---------------------||
|-------------------|--------------------o||
|-------------------|---------------------||
|-------------------|-----------6-7-------||
|-------------------|------7--9-----7--9-o||
|-------------------|----9----------------||


    C#5         A5   B5                      A#5  A5       G#5
     PM----------------------------------------------------|
     q   q   q  q    q  q  q  E E   q  q  q  q    q  q  q  q
||-----------------|--------------|-------------|--------------||
||o----------------|--------------|-------------|-------------o||
||-----------------|--------------|-------------|--------------||
||-----------------|--------------|-------------|--------------||
||o-11--11--11--7--|-9--9--9--x-x-|-9--9--9--8--|-7--7--7--6--o||
||---9---9---9--5--|-7--7--7--x-x-|-7--7--7--6--|-5--5--5--4---||


    N.C.
    PM|    PM  PM|      PM--|    PM--|
    E E  E E E E E  E   E E E  E E E E E
||--------------------|------------------|
||o-------------------|------------------|
||------11---9-----11-|-------11-------9-|
||--------------------|------------------|
||o-------------------|------------------|
||--9-9----9---9-9----|-0-0-0----0-0-0---|
|
|   Gtr II
|   W                   W
||--------------------|------------------|
||o-------------------|------------------|
||--------------------|------------------|
||--------------------|------------------|
||o-------------------|------------------|
||--------------------|------------------|


  PM|    PM  PM|      PM
  E E  E E E E E  E   E  E E  E E E E  E
|-------------------|---------------------||
|-------------------|--------------------o||
|-----11---9-----11-|-----------8-9-------||
|-------------------|------9-11-----9-11--||
|-------------------|---11---------------o||
|-9-9----9---9-9----|-9-------------------||
|
| W                   E  E E  E E E E  E
|-------------------|---------------------||
|-------------------|--------------------o||
|-------------------|---------------------||
|-------------------|-----------6-7-------||
|-------------------|------7--9-----7--9-o||
|-------------------|----9----------------||


   Pre-Verse
    $
    C#5      N.C.                    B5
     H    Q  E  E    E E  E  E  E  E Q
||----------------|---------------------|
||o---------------|---------------------|
||----------------|---------------------|
||----------------|-11------11----11----|
||o-11---------11-|----9-11----11----9--|
||---9-------9----|------------------7--|
|
|    H    Q  E  E    E E  E  E  E  E Q
||----------------|---------------------|
||o---------------|--9------------------|
||----------------|---------11----11----|
||----------------|----9-11----11-------|
||o-11---------11-|------------------9--|
||---9-------9----|------------------7--|


  C#5      N.C.                    B5
   H    Q  E  E    E E  E  E  E  E Q
|---------------|----------------------||
|---------------|---------------------o||
|---------------|----------------------||
|---------------|-11------11----11-----||
|-11---------11-|----9-11----11----9--o||
|--9-------9----|------------------7---||
|
|  H    Q  E  E    E E  E  E  E  E Q
|---------------|----------------------||
|---------------|--9------------------o||
|---------------|---------11----11-----||
|---------------|----9-11----11--------||
|-11---------11-|------------------9--o||
|--9-------9----|------------------7---||


   Verse
    C#5      N.C.
     H    Q  E  E    E E  E  E  E  E  E E
||----------------|-----------------------|
||o---------------|-----------------------|
||----------------|-----------------------|
||----------------|-11------11----11-11-9-|
||o-11---------11-|----9-11----11---------|
||---9-------9----|-----------------------|
|
|    H    Q  E  E    E E  E  E  E  E  E E
||----------------|-----------------------|
||o---------------|--9--------------------|
||----------------|---------11----11-11-9-|
||----------------|----9-11----11---------|
||o-11---------11-|-----------------------|
||---9-------9----|-----------------------|


  F#5      N.C.
   H    Q  E  E    E E  E  E E  E  Q   4x
|---------------|----------------------||
|---------------|---------------------o||
|---------------|-11------11-------9---||
|-11---------11-|----9-11----9-11------||
|--9-------9----|---------------------o||
|---------------|----------------------||
|
|  H    Q  E  E    E E  E  E E  E  Q   4x
|---------------|--9-------------------||
|---------------|---------12------12--o||
|---------------|----------------------||
|-11---------11-|----9-11----9-11------||
|--9-------9----|---------------------o||
|---------------|----------------------||


   Pre-Chorus
    N.C.
    PM|    PM  PM|      PM--|    PM--|
    E E  E E E E E  E   E E E  E E E E E
||--------------------|------------------|
||o-------------------|------------------|
||------11---9-----11-|-------11-------9-|
||--------------------|------------------|
||o-------------------|------------------|
||--9-9----9---9-9----|-0-0-0----0-0-0---|
|
|   W                   W
||--------------------|------------------|
||o-------------------|------------------|
||--------------------|------------------|
||--------------------|------------------|
||o-------------------|------------------|
||--------------------|------------------|


  PM|    PM  PM|      PM
  E E  E E E E E  E   E  E E  E E E E  E
|-------------------|---------------------||
|-------------------|--------------------o||
|-----11---9-----11-|-----------8-9-------||
|-------------------|------9-11-----9-11--||
|-------------------|---11---------------o||
|-9-9----9---9-9----|-9-------------------||
|
| W                   E  E E  E E E E  E
|-------------------|---------------------||
|-------------------|--------------------o||
|-------------------|---------------------||
|-------------------|-----------6-7-------||
|-------------------|------7--9-----7--9-o||
|-------------------|----9----------------||


   Chorus
                                                         D.S.
    C#5         A5   B5                      A#5  A5       G#5
     PM----------------------------------------------------|
     q   q   q  q    q  q  q  E E   q  q  q  q    q  q  q  q   4x
||-----------------|--------------|-------------|--------------||
||o----------------|--------------|-------------|-------------o||
||-----------------|--------------|-------------|--------------||
||-----------------|--------------|-------------|--------------||
||o-11--11--11--7--|-9--9--9--x-x-|-9--9--9--8--|-7--7--7--6--o||
||---9---9---9--5--|-7--7--7--x-x-|-7--7--7--6--|-5--5--5--4---||


    N.C.
    PM|    PM  PM|      PM--|    PM--|
    E E  E E E E E  E   E E E  E E E E E
||--------------------|------------------|
||o-------------------|------------------|
||------11---9-----11-|-------11-------9-|
||--------------------|------------------|
||o-------------------|------------------|
||--9-9----9---9-9----|-0-0-0----0-0-0---|
|
|   Gtr II
|   W                   W
||--------------------|------------------|
||o-------------------|------------------|
||--------------------|------------------|
||--------------------|------------------|
||o-------------------|------------------|
||--------------------|------------------|


  PM|    PM  PM|      PM
  E E  E E E E E  E   E  E E  E E E E  E  4x
|-------------------|---------------------||
|-------------------|--------------------o||
|-----11---9-----11-|-----------8-9-------||
|-------------------|------9-11-----9-11--||
|-------------------|---11---------------o||
|-9-9----9---9-9----|-9-------------------||
|
| W                   E  E E  E E E E  E  4x
|-------------------|---------------------||
|-------------------|--------------------o||
|-------------------|---------------------||
|-------------------|-----------6-7-------||
|-------------------|------7--9-----7--9-o||
|-------------------|----9----------------||

[ Tab from: http://www.guitartabs.cc/tabs/c/cky/tripled_manic_state_tab_ver_3.html ]
 Guitar Solo
  C#5        N.C.
  Gtr III
   H      q  Q       Q    H           Q
|-----------------|-----------------------|
|-----------------|-----------------------|
|-----------------|-----------------------|
|-----------------|-------9----------11---|
|--7----/11--9----|--9--------------------|
|-----------------|-----------------------|
|
| Gtr I
|  H      Q  E  E    E E  E  E  E  E  E E
|-----------------|-----------------------|
|-----------------|-----------------------|
|-----------------|-----------------------|
|-----------------|-11------11----11-11-9-|
|-11-----------11-|----9-11----11---------|
|--9---------9----|-----------------------|
|
| Gtr II
|  H      Q  E  E    E E  E  E  E  E  E E
|-----------------|-----------------------|
|-----------------|--9--------------------|
|-----------------|---------11----11-11-9-|
|-----------------|----9-11----11---------|
|-11-----------11-|-----------------------|
|--9---------9----|-----------------------|


  F#5        N.C.
   +H     Q  +E      E   +Q     H.
|----------------------|------------------------|
|----------------------|------------------------|
|---------9--(9)b11--9-|-(9)--------------------|
|-(11)-----------------|-------11---------------|
|----------------------|------------------------|
|----------------------|------------------------|
|
|   H     Q   E      E    E  E  E   E E  E  Q
|----------------------|------------------------|
|----------------------|------------------------|
|----------------------|-11--------11-------9---|
|--11---------------11-|-----9-11-----9-11------|
|---9---------9--------|------------------------|
|----------------------|------------------------|
|
|   H     Q   E      E    E  E  E   E E  E  Q
|----------------------|--9---------------------|
|----------------------|-----------12------12---|
|----------------------|------------------------|
|--11---------------11-|-----9-11-----9-11------|
|---9---------9--------|------------------------|
|----------------------|------------------------|


  C#5                                 N.C.
   S  S  S  S  S  S  S  S  S  S  S  S  S  S  S  S
|-------------------------------------------------|
|-------14p12-------14p12-------14p12-------14p12-|
|-12h13-------12h13-------12h13-------12h13-------|
|-------------------------------------------------|
|-------------------------------------------------|
|-------------------------------------------------|
|
|  H                       Q           E     E
|-------------------------------------------------|
|-------------------------------------------------|
|-------------------------------------------------|
|-------------------------------------------------|
|-11----------------------------------------11----|
|--9-----------------------------------9----------|
|
|  H                       Q           E     E
|-------------------------------------------------|
|-------------------------------------------------|
|-------------------------------------------------|
|-------------------------------------------------|
|-11----------------------------------------11----|
|--9-----------------------------------9----------|


   S  S  S  S  S  S  S  S  S  S  S  S  S  S  S  S
|--------------------------------------------------|
|-------14p12-------14p12-------14p12-------14p12--|
|-12h13-------12h13-------12h13-------12h13--------|
|--------------------------------------------------|
|--------------------------------------------------|
|--------------------------------------------------|
|
|  E     E     E     E     E     E     E     E
|--------------------------------------------------|
|--------------------------------------------------|
|--------------------------------------------------|
|-11----------------11----------11----11-----9-----|
|--------9----11----------11-----------------------|
|--------------------------------------------------|
|
|  E     E     E     E     E     E     E     E
|--------------------------------------------------|
|--9-----------------------------------------------|
|-------------------11----------11----11-----9-----|
|--------9----11----------11-----------------------|
|--------------------------------------------------|
|--------------------------------------------------|


  F#5                                 N.C.
                                                  ~~
   S  S  S  S  S  S  S  S  S  S  S  S  S S   E    W
|----------------------------------------------|---------------------|
|-------12----------12----------12p11----------|---------------------|
|-12h13----13-12h13----13p12----12p11----------|-13------------------|
|----------------------------14-------14---\14-|---------------------|
|----------------------------------------------|---------------------|
|----------------------------------------------|---------------------|
|
|  H                       Q           E     E    E E  E  E E  E  Q
|----------------------------------------------|---------------------|
|----------------------------------------------|---------------------|
|----------------------------------------------|-11------11-------9--|
|-11----------------------------------------11-|----9-11----9-11-----|
|--9-----------------------------------9-------|---------------------|
|----------------------------------------------|---------------------|
|
|  H                       Q           E     E    E E  E  E E  E  Q
|----------------------------------------------|--9------------------|
|----------------------------------------------|---------12------12--|
|----------------------------------------------|---------------------|
|-11----------------------------------------11-|----9-11----9-11-----|
|--9-----------------------------------9-------|---------------------|
|----------------------------------------------|---------------------|


   Out-Chorus
    C#5      N.C.
    Gtr I
     H    Q  E  E    E E  E  E  E  E  E E
||----------------|-----------------------|
||o---------------|-----------------------|
||----------------|-----------------------|
||----------------|-11------11----11-11-9-|
||o-11---------11-|----9-11----11---------|
||---9-------9----|-----------------------|
|
|   Gtr II
|    H    Q  E  E    E E  E  E  E  E  E E
||----------------|-----------------------|
||o---------------|--9--------------------|
||----------------|---------11----11-11-9-|
||----------------|----9-11----11---------|
||o-11---------11-|-----------------------|
||---9-------9----|-----------------------|


  F#5      N.C.
   H    Q  E  E    E E  E  E E  E  Q
|---------------|----------------------||
|---------------|---------------------o||
|---------------|-11------11-------9---||
|-11---------11-|----9-11----9-11------||
|--9-------9----|---------------------o||
|---------------|----------------------||
|
|  H    Q  E  E    E E  E  E E  E  Q
|---------------|--9-------------------||
|---------------|---------12------12--o||
|---------------|----------------------||
|-11---------11-|----9-11----9-11------||
|--9-------9----|---------------------o||
|---------------|----------------------||


  N.C.
  PM|    PM  PM|      PM--|    PM--|
  E E  E E E E E  E   E E E  E E E E E
|-------------------|------------------|
|-------------------|------------------|
|-----11---9-----11-|-------11-------9-|
|-------------------|------------------|
|-------------------|------------------|
|-9-9----9---9-9----|-0-0-0----0-0-0---|
|
| Gtr II
| W                   W
|-------------------|------------------|
|-------------------|------------------|
|-------------------|------------------|
|-------------------|------------------|
|-------------------|------------------|
|-------------------|------------------|


  PM|    PM  PM|      PM
  E E  E E E E E  E   E  E E  E E E E  E
|-------------------|---------------------|
|-------------------|---------------------|
|-----11---9-----11-|-----------8-9-------|
|-------------------|------9-11-----9-11--|
|-------------------|---11----------------|
|-9-9----9---9-9----|-9-------------------|
|
| W                   E  E E  E E E E  E
|-------------------|---------------------|
|-------------------|---------------------|
|-------------------|---------------------|
|-------------------|-----------6-7-------|
|-------------------|------7--9-----7--9--|
|-------------------|----9----------------|


                                                                 C#5
  E  E E  E E E E  E   E  E E  E E E E  E   E  E E  E E E E  E    H    H
|--------------------|--------------------|--------------------|------------*|
|--------------------|--------------------|--------------------|------------*|
|-----------8-9------|-----------8-9------|-----------8-9------|------------*|
|------9-11-----9-11-|------9-11-----9-11-|------9-11-----9-11-|------------*|
|---11---------------|---11---------------|---11---------------|-11---------*|
|--------------------|--------------------|--------------------|--9---------*|
|
| E  E E  E E E E  E   E  E E  E E E E  E   E  E E  E E E E  E    H    H
|--------------------|--------------------|--------------------|------------*|
|--------------------|--------------------|--------------------|------------*|
|--------------------|--------------------|--------------------|------------*|
|-----------6-7------|-----------6-7------|-----------6-7------|------------*|
|------7--9-----7--9-|------7--9-----7--9-|------7--9-----7--9-|-11---------*|
|----9---------------|----9---------------|----9---------------|--9---------*
Comments