Cky - Tripled Manic State Chords & Tabs

 

Tripled Manic State Chords & Tabs

Cky Chords & Tabs

Version: 2 Type: Tab 0 ratings
1 star 2 stars 3 stars 4 stars 5 stars
comments

Tripled Manic State Tab

-------------------------------------------------------------------------------
			     Tripled Manic State - CKY
-------------------------------------------------------------------------------
Tabbed by: plastic man in hi-fi
Email:plasticman56@hotmail.com

Tuning:normal

didnt get the big the heavy bit
[ Tab from: http://www.guitartabs.cc/tabs/c/cky/tripled_manic_state_tab_ver_2.html ]
e|---------------------------------------------------------------------------|
B|---------------------------------------------------------------------------|
G|--<----------(palm mute)------------->-------------------------------------|
D|--9-9-9-9--7-7-7-7007-7-7-7--5-5-5-5---------------------------------------|
A|--9-9-9-9--7-7-7-7007-7-7-7--5-5-5-5---------------------------------------|
E|--7-7-7-7--5-5-5-5005-5-5-5--3-3-3-3---------------------------------------|

e|---------------------------------------------------------------------------|
B|---------------------------------------------------------------------------|
G|-------------7h(9)---------------------------------------------------------|
D|--(9)----7h9---------------------------------------------------------------|
A|--(9)-7h9------------------------------------------------------------------|
E|--(7)----------------------------------------------------------------------|  
^you mite want to wammy this chord a little, probably just an effect tho

the cool part

i guess this isnt really just the intro coz ^ plays throughout
Comments