Cky - To All Of You Chords & Tabs

 

To All Of You Chords & Tabs

Cky Chords & Tabs

Version: 2 Type: Tab

To All Of You Tab

Cky:To All Of You

Standard Tuning

Riff 1
|------------------------------------------------------------------|
|------------------------------------------------------------------|
|------------------------------------------------------------------|
|-66666666--------6666666644444444---------------------------------|
|-4444444466666666----------------44444444666666667777777799999999-|
|---------44444444----------------22222222444444445555555577777777-|

Riff 2
|----------------------------------------------|	
|----------------------------------------------|
|----------------------------------------------|	
|---6-5-4----6-5-4----6-5-4-5-4-4/-6 4---------|	
|-4--------4--------4------------------22-11-0-|	
|----------------------------------------------|
[ Tab from: http://www.guitartabs.cc/tabs/c/cky/to_all_of_you_tab_ver_2.html ]
Riff 3
|-----------------------------------------------------------------|	
|-----------------------------------------------------------------|	
|-13-13-13-13-13-13-13-13-11-11-11-11-11-11-11-11-9-9-9-9-9-9-9-9-|	
|--x--x--x--x--x--x--x--x--x--x--x--x--x--x--x--x-x-x-x-x-x-x-x-x-|
|-11-11-11-11-11-11-11-11--9--9--9--9--9--9--9--9-7-7-7-7-7-7-7-7-|
|-----------------------------------------------------------------|

Riff 4
|-------------------------|	
|-------------------------|
|-11-13-11-13-11-13-11-13-|
|--x--x--x--x--x-x---x--x-|
|--9-11--9-11--9-11--9-11-|
|-------------------------|

Riff 5
|----------------------------------------------------------------|	
|----------------------------------------------------------------|	
|------------------13-13-13-13-13-13-13-11-11-11-11-11-9-9-9-9-9-|	
|-66666666-------------------------------------------------------|
|---------44444444-----------------------------------------------|
|----------------------------------------------------------------|

|-----------------------------------------------------|
|-----------------------------------------------------|
|-----------------------------------------------------|
|-----------------------------------------------------|
|-444444446666-11-11-11-11-11-9-9-9-9-9-9-7-7-7-7-7-7-|
|-----------------------------------------------------|