Cky - The Human Drive In Hifi Chords & Tabs

 

The Human Drive In Hifi Chords & Tabs

Cky Chords & Tabs

Version: 1 Type: Tab 2 ratings
1 star 2 stars 3 stars 4 stars 5 stars
comments

The Human Drive In Hifi Tab

   
Light Wah-effects/70's style:
Intro
---
-11
-x-
-8-
---
---

Background (Keyboard/violin arranged for guitar)

 Bb                  C                    Bb            Bb
-----------------------------------------------------------
-------------------------------------------------/13----11-(hold)
----------8----------8-10---8-10--8------------------------
-10-10-11---11-10-11------11----11--11-10-8----------------
-----------------------------------------------------------
-----------------------------------------------------------

Main Riff x4
Bb
---------------------------------
---------------------------------
---------------------------------
---------------------------------
-------4---------7---6---4---6---
-6-6-4---6-4-6-4---6---6---6---6-

[ Tab from: http://www.guitartabs.cc/tabs/c/cky/the_human_drive_in_hifi_tab.html ]
Verse Riff
Bb
------------------------------------------------------------------
------------------------------------------------------------------
------------------------------------------------------------------
------------------------------------------------------------------
-----------------------------4-6----------------------------------
-6---6-4-6-4-6-4-6---6-4-6-4------6---6-4-6-4-6-4-6---6-4-6-4-6-4-
_____________________________________________________________________
CHORUS("people stop and stare...")
Riff 1 1x 

 B5       D5     A5     E5 
----------------------------------- 
----------------------------------- 
----------------------------------- 
---8---8-------------6---6--------- 
-----------4/6-6----------/8-6-4--- 
-6---6-----------4-4---4---------6- 

Riff 2 1x 

 B5       D5     F#5     A5 
------------------------------------ 
------------------------------------ 
------------------------------------ 
---8---8---------------------------- 
-----------4/6-6---/8--/8--/8-6-4--- 
-6---6-----------4----------------6- 

PLay chorus Riff's 1 and 2 x2
Comments