Cky - The Human Drive In Hi-fi Chords & Tabs

 

The Human Drive In Hi-fi Chords & Tabs

Cky Chords & Tabs

Version: 1 Type: Tab 0 ratings
1 star 2 stars 3 stars 4 stars 5 stars
comments

The Human Drive In Hi-fi Tab

   
Th Human Drive In Hi-Fi -- cKy
By Deron Miller from Camp Volume One
Tab by John Houx 

Tuned down one Half step (low to high: Eb Ab Db Gb Bb Eb)

Play with "70s-action-movie-style" wah on this chord

Sorry about this tab, this song is INCREDIBLE hard to decipher, there are
just too many layers.

---
-11
---
-8-
---
---

Background (Keyboard arranged for guitar)

I know it sounds wrong but if you actually go through and listen to each note
carefully on the recording, these are right

 Bb                  C                    Bb            Bb
-----------------------------------------------------------
-------------------------------------------------/13----11-(hold)
----------8----------8-10---8-10--8------------------------
-10-10-11---11-10-11------11----11--11-10-8----------------
-----------------------------------------------------------
-----------------------------------------------------------

Main Riff
Bb
---------------------------------
---------------------------------
---------------------------------
---------------------------------
-------4---------7---6---4---6---
-6-6-4---6-4-6-4-----------------
[ Tab from: http://www.guitartabs.cc/tabs/c/cky/the_human_drive_in_hi_fi_tab.html ]
Verse Riff
Bb
------------------------------------------------------------------
------------------------------------------------------------------
------------------------------------------------------------------
------------------------------------------------------------------
-----------------------------4-6----------------------------------
-6---6-4-6-4-6-4-6---6-4-6-4------6---6-4-6-4-6-4-6---6-4-6-4-6-4-

I can't deny it all my life
It's just the token of my eyes
Something you would try
For the best in the obscene you just look on your TV screen
To pass away the while
It doesnt matter if you're red, black, or in the sack
I've got my grip I've got a hold
Nothing ties one down like prime time in Hi-Fi
But now it's getting old

Chorus

------------------------------
------------------------------
------------------------------
------------------------------
-8--8-8--11-11-----6--8-6---6-
-6--6-6--9--9--4-4--4-----9---

Bb     Db             Ab             Eb
People stop and stare here there and everywhere
Bb              Db             Ab         F
They've got the blueprints for life
If you keep pretending the world is ending
Then you'll be fictionized

Verse 2
So stop the human drive
The fierce power switching on the ripe adolescent light
Terminates in five
The people standing in the lines have seen the film a million times 
With a pocket full of dimes
So unless it is for free...spin the country on its side to be intensified

Chorus

Bridge - Same as main

It's on this tv
It's on the tv
It's on your tv
It's on the tv
It's on his tv
It's on her tv
It's on his tv
It's on your tv screen!!!

Then play main

You keep pretending the world is ending...and you'll be fictionized


Outro - Same as Chorus
Comments