Cky - Testing Chords & Tabs

 

Testing Chords & Tabs

Cky Chords & Tabs

Version: 6 Type: Tab 0 ratings
1 star 2 stars 3 stars 4 stars 5 stars
comments

Testing Tab

   
Testing 
CKY
Volume 2

Tabbed By: John Romero

Tuning: Standard (E A D G B E)

Intro x4
|----------------------------------------10---12------------10---12-----|
|---------10---12--------------------------------------10---------------|
|------11--------------12---11---9--------------------------------------|
|-9-12-------9----9-12----9----9---9-12-----9----9-8-7----7----7----7/9-|
|-----------------------------------------------------------------------|
|-----------------------------------------------------------------------|

Riff A x8
|------------------------------|
|------------------------------|
|------------------------------|
|-----------7-9/11-------------|
|---5---7/9----------5---7---7-|
|-7---5------------7---5---5---|


Riff B x2
|------------------------------------------------------------|
|------------------------------------------------------------|
|-4-------------4-4----------------------4---4-2---------2---|
|-4-------------4-4------------------4-----4-----2---2-------|
|-2--5-4-0---0--2-2-5-4-0---0----2-5---2-----------0---4---0-|
|----------2--------------2----3-----------------------------|

Intro x1
|----------------------------------------10---12------------10---12-----|
|---------10---12--------------------------------------10---------------|
|------11--------------12---11---9--------------------------------------|
|-9-12-------9----9-12----9----9---9-12-----9----9-8-7----7----7----7/9-|
|-----------------------------------------------------------------------|
|-----------------------------------------------------------------------|
[ Tab from: http://www.guitartabs.cc/tabs/c/cky/testing_tab_ver_6.html ]
Riff A x8
|------------------------------|
|------------------------------|
|------------------------------|
|-----------7-9/11-------------|
|---5---7/9----------5---7---7-|
|-7---5------------7---5---5---|

Riff B x4
|------------------------------------------------------------|
|------------------------------------------------------------|
|-4-------------4-4----------------------4---4-2---------2---|
|-4-------------4-4------------------4-----4-----2---2-------|
|-2--5-4-0---0--2-2-5-4-0---0----2-5---2-----------0---4---0-|
|----------2--------------2----3-----------------------------|

Intro x 1/2
|----------------------|
|---------10---12------|
|------11--------------|
|-9-12-------9----9-12-|
|----------------------|
|----------------------|

Riff C x4
|-----------------------------------------------------------|
|-----------------------------------------------------------|
|-----------------------------------------------------------|
|-------4---6-------------------------4---6-----------------|
|-----6-----------7---6---4---------6-----------7---6---4---|
|-4-7-----4---4-7---4---4---7---4-7-----4---4-7---4---4---7-|

Riff B x4
|------------------------------------------------------------|
|------------------------------------------------------------|
|-4-------------4-4----------------------4---4-2---------2---|
|-4-------------4-4------------------4-----4-----2---2-------|
|-2--5-4-0---0--2-2-5-4-0---0----2-5---2-----------0---4---0-|
|----------2--------------2----3-----------------------------|

Riff A x8
|------------------------------|
|------------------------------|
|------------------------------|
|-----------7-9/11-------------|
|---5---7/9----------5---7---7-|
|-7---5------------7---5---5---|

End With
|---|
|---|
|-4-|
|-2-|
|-2-|
|---|

That's it. Good Luck.
Email me at ckyfonzie@gmail for any info.
Comments