Cky - Testing Chords & Tabs

 

Testing Chords & Tabs

Cky Chords & Tabs

Version: 4 Type: Tab 0 ratings
1 star 2 stars 3 stars 4 stars 5 stars
comments

Testing Tab

Testing (For Life On Mars) -- cKy
By Deron Miller -- Unreleased Instrumental/from the eS video Menikmati
Tab by John Houx (john@cky-online.com) http://www.cky-online.com/
Corrections by Bob (lobsterhouse5000hotmail.com)

Standard Tuning

I changed it to standard tuning and im sure is 100% correct from what i can hear

Intro

----------------------------------------------10----12-------------10---12-----
----------10----12--------------------------------------------10---------------
-------11----------------12----11----9---------------------------------------7-
-9-12-------9-------9-12-----9----9-----12-9----9-------9-8-7----7----7----7---
-------------------------------------------------------------------------------
-------------------------------------------------------------------------------

Play x4
[ Tab from: http://www.guitartabs.cc/tabs/c/cky/testing_tab_ver_4.html ]
-----------------------------------------
-----------------------------------------
--------------2----4/6-------------------
----------4----------------------2-----2-
-2--5-------------------2--5-------------
--------5----------------------3-----3---


-------------------------------------------------------------
-------------------------------------------------------------
---------------------------------------4---4-2-----------2---
-----------------------------------4-----4-----2---2---2-----
-2---5-4-------2---5-4---------2-5---2-----------0---4-----0-
---------5-2-5---------5-2-5-3-------------------------------


Bridge
----------------------------------
----------------------------------
----------------------------------
--------4---6---------------------
------6-------------7---6---------
-4-7------4---4--4----4---4-7-----
Comments