Cky - Suddenly Tragic Chords & Tabs

 

Suddenly Tragic Chords & Tabs

Cky Chords & Tabs

Version: 6 Type: Tab 0 ratings
1 star 2 stars 3 stars 4 stars 5 stars
comments

Suddenly Tragic Tab

   
                                 SUDDENLY TRAGIC
                               As recorded by CKY
                  (From the 2005 Album AN ANSWER CAN BE FOUND)

Words and Music by Deron Miller

Gtr I (D G C F A D) 
Gtr II (D G C F A D) 

 Intro
  Q=127
                     B5/F#   C#5           E5                 B5
 4/4
  Gtr I
  W          H.      Q     E  E E  E  E  E  E  E    E  E  E E E E  E  E
|----------|-------------|-----------------------|-----------------------|
|----------|-------------|-----------------------|-----------------------|
|----------|-------------|-9------------13----11-|--------------8----11--|
|----------|-------------|---11-9-11-11----------|----14----9------9-----|
|----------|---------2/--|-----------------------|-----------------------|
|----------|---------2/--|-----------------12----|-12----12---7----------|
|
| Gtr II
| W          H.      Q     E  E E  E  Q     E  E    E  E  E E E Q.
|----------|-------------|-----------------------|-----------------------|
|----------|-------------|-----------------------|-----------------------|
|----------|-------------|-----------------------|-----------------------|
|----------|-------------|------------------9----|--9-----9--------------|
|----------|---------2/--|---11---11--------7----|--7-----7---9----------|
|----------|---------2/--|----9----9-------------|------------7----------|


    C#5           E5               N.C.             C#5           E5
  E  E E  E  E  E  E  E    E  E  E  E  E  E  Q    E  E E  E  E  E  E  E
|-----------------------|-----------------------|-----------------------|
|-----------------------|-----------------------|-----------------------|
|-9------------13----11-|----------11-13----13--|-9------------13----11-|
|---11-9-11-11----------|----14-----------------|---11-9-11-11----------|
|-----------------------|----------------11-----|-----------------------|
|-----------------12----|-12----12--------------|-----------------12----|
|
| E  E E  E  Q     E  E    E  E  E  E  E  E  Q    E  E E  E  Q     E  E
|-----------------------|-----------------------|-----------------------|
|-----------------------|-----------------------|-----------------------|
|-----------------------|-----------------------|-----------------------|
|------------------9----|--9-----9--4--6-----6--|------------------9----|
|---11---11--------7----|--7-----7--------------|---11---11--------7----|
|----9----9-------------|-----------------4-----|----9----9-------------|


             B5            C#5          E5               N.C.
   E  E  E E E E  E  E   E  E E  E E  E  E  E    E  E  E  E  E  E  Q
|----------------------|----------------------|-----------------------|
|----------------------|----------------------|-----------------------|
|--------------8----11-|-9----8----9-13----11-|----------11-13-13-11--|
|----14----9------9----|---11---11------------|----14-----------------|
|----------------------|----------------------|-----------------------|
|-12----12---7---------|----------------12----|-12----12--------------|
|
|  E  E  E E E Q.        E  E E  E Q     E  E    E  E  E  E  E  E  Q
|----------------------|----------------------|-----------------------|
|----------------------|----------------------|-----------------------|
|----------------------|----------------------|-----------------------|
|--9-----9-------------|-----------------9----|--9-----9-----6--6--4--|
|--7-----7---9---------|---11---11-------7----|--7-----7--------------|
|------------7---------|----9----9------------|-----------4-----------|


 Verse
    C#5           E5                 B5
  E  E E  E  E  E  E  E    E  E  E E E E  E  E
|-----------------------|----------------------|
|-----------------------|----------------------|
|-9------------13----11-|--------------8----11-|
|---11-9-11-11----------|----14----9------9----|
|-----------------------|----------------------|
|-----------------12----|-12----12---7---------|
|
| E  E E  E  Q     E  E    E  E  E E E Q.
|-----------------------|----------------------|
|-----------------------|----------------------|
|-----------------------|----------------------|
|------------------9----|--9-----9-------------|
|---11---11--------7----|--7-----7---9---------|
|----9----9-------------|------------7---------|


    C#5           E5               N.C.
  E  E E  E  E  E  E  E    E  E  E  E  E  E  Q
|-----------------------|------------------------|
|-----------------------|------------------------|
|-9------------13----11-|----------11-13----13---|
|---11-9-11-11----------|----14------------------|
|-----------------------|----------------11------|
|-----------------12----|-12----12---------------|
|
| E  E E  E  Q     E  E    E  E  E  E  E  E  Q
|-----------------------|------------------------|
|-----------------------|------------------------|
|-----------------------|------------------------|
|------------------9----|--9-----9--4--6-----6---|
|---11---11--------7----|--7-----7---------------|
|----9----9-------------|-----------------4------|


    C#5           E5                 B5
  E  E E  E  E  E  E  E    E  E  E E E E  E  E
|-----------------------|----------------------|
|-----------------------|----------------------|
|-9------------13----11-|--------------8----11-|
|---11-9-11-11----------|----14----9------9----|
|-----------------------|----------------------|
|-----------------12----|-12----12---7---------|
|
| E  E E  E  Q     E  E    E  E  E E E Q.
|-----------------------|----------------------|
|-----------------------|----------------------|
|-----------------------|----------------------|
|------------------9----|--9-----9-------------|
|---11---11--------7----|--7-----7---9---------|
|----9----9-------------|------------7---------|


    C#5          E5               N.C.
  E  E E  E E  E  E  E    E  E  E  E  E  E  Q
|----------------------|------------------------|
|----------------------|------------------------|
|-9----8----9-13----11-|----------11-13-13-11---|
|---11---11------------|----14------------------|
|----------------------|------------------------|
|----------------12----|-12----12---------------|
|
| E  E E  E Q     E  E    E  E  E  E  E  E  Q
|----------------------|------------------------|
|----------------------|------------------------|
|----------------------|------------------------|
|-----------------9----|--9-----9-----6--6--4---|
|---11---11-------7----|--7-----7---------------|
|----9----9------------|-----------4------------|


 Pre-Chorus
  N.C.
    PM  PM    PM    PM  PM             PM  PM   PM|        PM  PM   PM--|
  E E E E E E E E   E E E Q  E E E   E E E E  E E E  E   E E E E  E E E E
|-----------------|----------------|-------------------|-------------------|
|-----------------|----------------|-------------------|-------------------|
|-8---6-----6---8-|---6--------6-8-|-9--------------11-|-9-----------------|
|---------9-------|-------6--9-----|-----9---11--------|-----9---11--------|
|-----------------|----------------|-------------------|-------------------|
|---7---7-----7---|-7---7----------|---9---9----9-9----|---9---9----9-9-7--|


    PM  PM    PM    PM  PM             PM  PM   PM------------------|
  E E E E E E E E   E E E Q  E E E   E E E E  E E E E   E E E E E E Q
|-----------------|----------------|------------------|------------------|
|-----------------|----------------|------------------|------------------|
|-8---6-----6---8-|---6--------6-8-|-9----------------|------------------|
|---------9-------|-------6--9-----|-----9---11-------|------------------|
|-----------------|----------------|------------------|------------------|
|---7---7-----7---|-7---7----------|---9---9----9-9-9-|-9-9-9-9-9-9-9\---|


 Verse
    C#5           E5                 B5
  E  E E  E  E  E  E  E    E  E  E E E E  E  E
|-----------------------|----------------------|
|-----------------------|----------------------|
|-9------------13----11-|--------------8----11-|
|---11-9-11-11----------|----14----9------9----|
|-----------------------|----------------------|
|-----------------12----|-12----12---7---------|
|
| Gtr II
| E  E E  E  Q     E  E    E  E  E E E Q.
|-----------------------|----------------------|
|-----------------------|----------------------|
|-----------------------|----------------------|
|------------------9----|--9-----9-------------|
|---11---11--------7----|--7-----7---9---------|
|----9----9-------------|------------7---------|


    C#5           E5               N.C.
  E  E E  E  E  E  E  E    E  E  E  E  E  E  Q
|-----------------------|------------------------|
|-----------------------|------------------------|
|-9------------13----11-|----------11-13-13-13---|
|---11-9-11-11----------|----14------------------|
|-----------------------|------------------------|
|-----------------12----|-12----12---------------|
|
| E  E E  E  Q     E  E    E  E  E  E  E  E  Q
|-----------------------|------------------------|
|-----------------------|------------------------|
|-----------------------|------------------------|
|------------------9----|--9-----9--4--6-----6---|
|---11---11--------7----|--7-----7---------------|
|----9----9-------------|-----------------4------|


    C#5           E5                 B5
  E  E E  E  E  E  E  E    E  E  E E E E  E  E
|-----------------------|----------------------|
|-----------------------|----------------------|
|-9------------13----11-|--------------8----11-|
|---11-9-11-11----------|----14----9------9----|
|-----------------------|----------------------|
|-----------------12----|-12----12---7---------|
|
| E  E E  E  Q     E  E    E  E  E E E Q.
|-----------------------|----------------------|
|-----------------------|----------------------|
|-----------------------|----------------------|
|------------------9----|--9-----9-------------|
|---11---11--------7----|--7-----7---9---------|
|----9----9-------------|------------7---------|


    C#5          E5               N.C.
  E  E E  E E  E  E  E    E  E  E  E  E  E  Q
|----------------------|------------------------|
|----------------------|------------------------|
|-9---------9-13----11-|----------11-13-13-11---|
|---11-9-11------------|----14------------------|
|----------------------|------------------------|
|----------------12----|-12----12---------------|
|
| E  E E  E Q     E  E    E  E  E  E  E  E  Q
|----------------------|------------------------|
|----------------------|------------------------|
|----------------------|------------------------|
|-----------------9----|--9-----9-----6-----6---|
|---11---11-------7----|--7-----7---------------|
|----9----9------------|-----------4-----4------|


 Pre-Chorus
  N.C.
    PM  PM    PM    PM  PM             PM  PM   PM|        PM  PM   PM--|
  E E E E E E E E   E E E Q  E E E   E E E E  E E E  E   E E E E  E E E E
|-----------------|----------------|-------------------|-------------------|
|-----------------|----------------|-------------------|-------------------|
|-8---6-----6---8-|---6--------6-8-|-9--------------11-|-9-----------------|
|---------9-------|-------6--9-----|-----9---11--------|-----9---11--------|
|-----------------|----------------|-------------------|-------------------|
|---7---7-----7---|-7---7----------|---9---9----9-9----|---9---9----9-9-7--|


  Gtr I
    PM  PM    PM    PM  PM             PM   PM   PM|        PM   PM   PM|
  E E E E E E E E   E E E Q  E E E   E E  E E  E E E  E   E E  E E  E E Q
|-----------------|----------------|--------------------|--------------------|
|-----------------|----------------|--------------------|--------------------|
|-8---6-----6---8-|---6--------6-8-|-9---------------11-|-9------------------|
|---------9-------|-------6--9-----|------9---11--------|------9---11--------|
|-----------------|----------------|--------------------|--------------------|
|---7---7-----7---|-7---7----------|---9----9----9-9----|---9----9----9-9\---|
|
| Gtr II
|                                      PM   PM   PM|        PM   PM   PM|
| W                 W                E E  E E  E E E  E   E E  E E  E E Q
|-----------------|----------------|--------------------|--------------------|
|-----------------|----------------|-9---------9--------|-----------9--------|
|-----------------|----------------|-----11----------11-|-9---11-------------|
|-----------------|----------------|--------------------|--------------------|
|-----------------|----------------|--------------------|--------------------|
|-----------------|----------------|---9----9----9-9----|---9----9----9-9\---|


   Chorus
    N.C.                C#5
    PM---------------------------------------|
    E E E E E E E E     E S S E S E S E  S   E.
||-------------------||-------------------------|
||o-----------------o||-------------------------|
||-------------------||-------------------------|
||-------------------||-6-6-6-6-6-6-6-6--6---6--|
||o-----------------o||-4-4-4-4-4-4-4-4--4---4--|
||--0-0-0-0-0-0-0-0--||-------------------------|
|
|   Gtr II
|                       <                >
|   W                   Q     H         +Q
||-------------------||-------------------------|
||o-----------------o||-9-----9---------(9)\----|
||-------------------||-9-----9---------(9)\----|
||-------------------||-------------------------|
||o-----------------o||-------------------------|
||-------------------||-------------------------|


    N.C.                                C#5
    PM-------------------------------------------------------------|
    S S S S S S S S S S S S S S S S      e  S S  E  S E S E   S    E.
||-----------------------------------||-------------------------------|
||o---------------------------------o||-------------------------------|
||-----------------------------------||-------------------------------|
||-----------------------------------||--6--6-6--6--6-6-6-6---6----6--|
||o---------------------------------o||--4--4-4--4--4-4-4-4---4----4--|
||--0-0-0-0-0-0-0-0-0-0-0-0-0-0-0-0--||-------------------------------|
|
|                                        <                    >
|   W                                    Q       H           +Q
||-----------------------------------||-<5>-----<5>---------(<5>)\----|
||o---------------------------------o||-------------------------------|
||-----------------------------------||-------------------------------|
||-----------------------------------||-------------------------------|
||o---------------------------------o||-------------------------------|
||-----------------------------------||-------------------------------|


  N.C.                              C#5
  PM--------------------------------------------------------|
  S S S S S S S S S S S S S S S S    e S S  E S E S E   S   E.
|---------------------------------|----------------------------|
|---------------------------------|----------------------------|
|---------------------------------|----------------------------|
|---------------------------------|--6-6-6--6-6-6-6-6---6---6--|
|---------------------------------|--4-4-4--4-4-4-4-4---4---4--|
|-0-0-0-0-0-0-0-0-0-0-0-0-0-0-0-0-|----------------------------|
|
| Gtr II
|                                    <                  >
| W                                  Q      H          +Q
|---------------------------------|-12-----12---------(12)\----|
|---------------------------------|--9------9----------(9)\----|
|---------------------------------|--9------9----------(9)\----|
|---------------------------------|----------------------------|
|---------------------------------|----------------------------|
|---------------------------------|----------------------------|


  B5            D5/AA5
  PM----------|
  E E E E E E E E    E  E  E  E Q.         E
|-----------------|--------------------------|
|-----------------|--------------------------|
|-----------------|--2--2--2--2-2------------|
|-4-4-4-4-4-4-4p0-|--2--2--2--2-2------------|
|-2-2-2-2-2-2-2p0-|--0--0--0--0-0------------|
|-----------------|--------------------------|
|
|                    <                >
| W                  Q     H         +Q
|-----------------|--------------------------|
|-----------------|-<5>---<5>-------(<5>)\---|
|-----------------|--------------------------|
|-----------------|--------------------------|
|-----------------|--------------------------|
|-----------------|--------------------------|


    C#5    N.C.           C#5    N.C.           G#5F#5      E5  F#5E5
     Q   E  E  E  E  Q     Q   E  E  E  E  Q     E  E  E  E E E  E E  4x
||----------------------|---------------------|-----------------------||
||o---------------------|---------------------|----------------------o||
||----------------------|--------------11-----|-13-11-11-11-9-9-11-9--||
||----------------------|---------------------|-13-11-11-11-9-9-11-9--||
||o-11--11-11-12-11-12--|-11--11-11-12----11--|-11--9--9--9-7-7--9-7-o||
||---9---9--------------|--9---9--------------|-----------------------||


    C#5           E5                 B5
  E  E E  E  E  E  E  E    E  E  E E E E  E  E
|-----------------------|----------------------|
|-----------------------|----------------------|
|-9------------13----11-|--------------8----11-|
|---11-9-11-11----------|----14----9------9----|
|-----------------------|----------------------|
|-----------------12----|-12----12---7---------|
|
| Gtr II
| E  E E  E  Q     E  E    E  E  E E E Q.
|-----------------------|----------------------|
|-----------------------|----------------------|
|-----------------------|----------------------|
|------------------9----|--9-----9-------------|
|---11---11--------7----|--7-----7---9---------|
|----9----9-------------|------------7---------|


    C#5          E5               N.C.
  E  E E  E E  E  E  E    E  E  E  E  E  E  Q
|----------------------|------------------------|
|----------------------|------------------------|
|-9----8----9-13----11-|----------11-13----13---|
|---11---11------------|----14------------------|
|----------------------|----------------11------|
|----------------12----|-12----12---------------|
|
| E  E E  E Q     E  E    E  E  E  E  E  E  Q
|----------------------|------------------------|
|----------------------|------------------------|
|----------------------|------------------------|
|-----------------9----|--9-----9--4--6-----6---|
|---11---11-------7----|--7-----7---------------|
|----9----9------------|-----------------4------|


    C#5           E5                 B5
  E  E E  E  E  E  E  E    E  E  E E E E  E  E
|-----------------------|----------------------|
|-----------------------|----------------------|
|-9------------13----11-|--------------8----11-|
|---11-9-11-11----------|----14----9------9----|
|-----------------------|----------------------|
|-----------------12----|-12----12---7---------|
|
| E  E E  E  Q     E  E    E  E  E E E Q.
|-----------------------|----------------------|
|-----------------------|----------------------|
|-----------------------|----------------------|
|------------------9----|--9-----9-------------|
|---11---11--------7----|--7-----7---9---------|
|----9----9-------------|------------7---------|


    C#5          E5               N.C.
  E  E E  E E  E  E  E    E  E  E  E  E  E  Q
|----------------------|------------------------|
|----------------------|------------------------|
|-9----8----9-13----11-|----------11-13-13-11---|
|---11---11------------|----14------------------|
|----------------------|------------------------|
|----------------12----|-12----12---------------|
|
| E  E E  E Q     E  E    E  E  E  E  E  E  Q
|----------------------|------------------------|
|----------------------|------------------------|
|----------------------|------------------------|
|-----------------9----|--9-----9-----6-----6---|
|---11---11-------7----|--7-----7---------------|
|----9----9------------|-----------4-----4------|


 Verse
    C#5           E5                 B5
  E  E E  E  E  E  E  E    E  E  E E E E  E  E
|-----------------------|----------------------|
|-----------------------|----------------------|
|-9------------13----11-|--------------8----11-|
|---11-9-11-11----------|----14----9------9----|
|-----------------------|----------------------|
|-----------------12----|-12----12---7---------|
|
| E  E E  E  Q     E  E    E  E  E E E Q.
|-----------------------|----------------------|
|-----------------------|----------------------|
|-----------------------|----------------------|
|------------------9----|--9-----9-------------|
|---11---11--------7----|--7-----7---9---------|
|----9----9-------------|------------7---------|


    C#5          E5               N.C.
  E  E E  E E  E  E  E    E  E  E  E  E  E  Q
|----------------------|------------------------|
|----------------------|------------------------|
|-9----8----9-13----11-|----------11-13----13---|
|---11---11------------|----14------------------|
|----------------------|----------------11------|
|----------------12----|-12----12---------------|
|
| E  E E  E Q     E  E    E  E  E  E  E  E  Q
|----------------------|------------------------|
|----------------------|------------------------|
|----------------------|------------------------|
|-----------------9----|--9-----9--4--6-----6---|
|---11---11-------7----|--7-----7---------------|
|----9----9------------|-----------------4------|

[ Tab from: http://www.guitartabs.cc/tabs/c/cky/suddenly_tragic_tab_ver_6.html ]
    C#5           E5                 B5
  E  E E  E  E  E  E  E    E  E  E E E E  E  E
|-----------------------|----------------------|
|-----------------------|----------------------|
|-9------------13----11-|--------------8----11-|
|---11-9-11-11----------|----14----9------9----|
|-----------------------|----------------------|
|-----------------12----|-12----12---7---------|
|
| E  E E  E  Q     E  E    E  E  E E E Q.
|-----------------------|----------------------|
|-----------------------|----------------------|
|-----------------------|----------------------|
|------------------9----|--9-----9-------------|
|---11---11--------7----|--7-----7---9---------|
|----9----9-------------|------------7---------|


    C#5          E5               N.C.
  E  E E  E E  E  E  E    E  E  E  E  E  E  Q
|----------------------|------------------------|
|----------------------|------------------------|
|-9----8----9-13----11-|----------11-13-13-11---|
|---11---11------------|----14------------------|
|----------------------|------------------------|
|----------------12----|-12----12---------------|
|
| E  E E  E Q     E  E    E  E  E  E  E  E  Q
|----------------------|------------------------|
|----------------------|------------------------|
|----------------------|------------------------|
|-----------------9----|--9-----9-----6-----6---|
|---11---11-------7----|--7-----7---------------|
|----9----9------------|-----------4-----4------|


 Pre-Chorus
  N.C.
    PM  PM    PM    PM  PM             PM  PM   PM|        PM  PM   PM--|
  E E E E E E E E   E E E Q  E E E   E E E E  E E E  E   E E E E  E E E E
|-----------------|----------------|-------------------|-------------------|
|-----------------|----------------|-------------------|-------------------|
|-8---6-----6---8-|---6--------6-8-|-9--------------11-|-9-----------------|
|---------9-------|-------6--9-----|-----9---11--------|-----9---11--------|
|-----------------|----------------|-------------------|-------------------|
|---7---7-----7---|-7---7----------|---9---9----9-9----|---9---9----9-9-7--|


  Gtr I
    PM  PM    PM    PM  PM             PM   PM   PM|        PM   PM   PM|
  E E E E E E E E   E E E Q  E E E   E E  E E  E E E  E   E E  E E  E E Q
|-----------------|----------------|--------------------|--------------------|
|-----------------|----------------|--------------------|--------------------|
|-8---6-----6---8-|---6--------6-8-|-9---------------11-|-9------------------|
|---------9-------|-------6--9-----|------9---11--------|------9---11--------|
|-----------------|----------------|--------------------|--------------------|
|---7---7-----7---|-7---7----------|---9----9----9-9----|---9----9----9-9\---|
|
| Gtr II
|                                      PM   PM   PM|        PM   PM   PM|
| W                 W                E E  E E  E E E  E   E E  E E  E E Q
|-----------------|----------------|--------------------|--------------------|
|-----------------|----------------|-9---------9--------|-----------9--------|
|-----------------|----------------|-----11----------11-|-9---11-------------|
|-----------------|----------------|--------------------|--------------------|
|-----------------|----------------|--------------------|--------------------|
|-----------------|----------------|---9----9----9-9----|---9----9----9-9\---|


   Chorus
    N.C.                C#5
    PM---------------------------------------|
    E E E E E E E E     E S S E S E S E  S   E.
||-------------------||-------------------------|
||o-----------------o||-------------------------|
||-------------------||-------------------------|
||-------------------||-6-6-6-6-6-6-6-6--6---6--|
||o-----------------o||-4-4-4-4-4-4-4-4--4---4--|
||--0-0-0-0-0-0-0-0--||-------------------------|
|
|   Gtr II
|                       <                >
|   W                   Q     H         +Q
||-------------------||-------------------------|
||o-----------------o||-9-----9---------(9)\----|
||-------------------||-9-----9---------(9)\----|
||-------------------||-------------------------|
||o-----------------o||-------------------------|
||-------------------||-------------------------|


    N.C.                                C#5
    PM-------------------------------------------------------------|
    S S S S S S S S S S S S S S S S      e  S S  E  S E S E   S    E.
||-----------------------------------||-------------------------------|
||o---------------------------------o||-------------------------------|
||-----------------------------------||-------------------------------|
||-----------------------------------||--6--6-6--6--6-6-6-6---6----6--|
||o---------------------------------o||--4--4-4--4--4-4-4-4---4----4--|
||--0-0-0-0-0-0-0-0-0-0-0-0-0-0-0-0--||-------------------------------|
|
|                                        <                    >
|   W                                    Q       H           +Q
||-----------------------------------||-<5>-----<5>---------(<5>)\----|
||o---------------------------------o||-------------------------------|
||-----------------------------------||-------------------------------|
||-----------------------------------||-------------------------------|
||o---------------------------------o||-------------------------------|
||-----------------------------------||-------------------------------|


  N.C.                              C#5
  PM--------------------------------------------------------|
  S S S S S S S S S S S S S S S S    e S S  E S E S E   S   E.
|---------------------------------|----------------------------|
|---------------------------------|----------------------------|
|---------------------------------|----------------------------|
|---------------------------------|--6-6-6--6-6-6-6-6---6---6--|
|---------------------------------|--4-4-4--4-4-4-4-4---4---4--|
|-0-0-0-0-0-0-0-0-0-0-0-0-0-0-0-0-|----------------------------|
|
| Gtr II
|                                    <                  >
| W                                  Q      H          +Q
|---------------------------------|-12-----12---------(12)\----|
|---------------------------------|--9------9----------(9)\----|
|---------------------------------|--9------9----------(9)\----|
|---------------------------------|----------------------------|
|---------------------------------|----------------------------|
|---------------------------------|----------------------------|


  B5            D5/AA5
  PM----------|
  E E E E E E E E    E  E  E  E Q.         E
|-----------------|--------------------------|
|-----------------|--------------------------|
|-----------------|--2--2--2--2-2------------|
|-4-4-4-4-4-4-4p0-|--2--2--2--2-2------------|
|-2-2-2-2-2-2-2p0-|--0--0--0--0-0------------|
|-----------------|--------------------------|
|
|                    <                >
| W                  Q     H         +Q
|-----------------|--------------------------|
|-----------------|-<5>---<5>-------(<5>)\---|
|-----------------|--------------------------|
|-----------------|--------------------------|
|-----------------|--------------------------|
|-----------------|--------------------------|


    C#5    N.C.           C#5    N.C.           G#5F#5      E5  F#5E5
     Q   E  E  E  E  Q     Q   E  E  E  E  Q     E  E  E  E E E  E E  4x
||----------------------|---------------------|-----------------------||
||o---------------------|---------------------|----------------------o||
||----------------------|--------------11-----|-13-11-11-11-9-9-11-9--||
||----------------------|---------------------|-13-11-11-11-9-9-11-9--||
||o-11--11-11-12-11-12--|-11--11-11-12----11--|-11--9--9--9-7-7--9-7-o||
||---9---9--------------|--9---9--------------|-----------------------||


 Guitar Solo
  B
  Gtr II
   E.      E   S  S  S  Q   E S S    E.      E   S  S  S  Q.     E
|---------------------------------|--------------------------------|
|-16b17r==16-----------16---------|-16b17r==16-----------16--------|
|-16b17r==16-----------16---------|-16b17r==16-----------16--------|
|----------------16h18--------x-x-|----------------16h18-----------|
|---------------------------------|--------------------------------|
|---------------------------------|--------------------------------|
|
| Gtr I
|       PM        PM        PM       PM        PM
|  E    E    E    E     E E E E      E    E    E    Q        E E E
|---------------------------------|--------------------------------|
|---------------------------------|--------------------------------|
|--8---------6------------6---8---|-------6--------------------6-8-|
|-----------------------9---------|-----------------6--------9-----|
|---------------------------------|--------------------------------|
|-------7---------7---------7-----|--7---------7-------------------|


  N.C.
    q     q     Q.      E    S  S  S  S  E  S  S  S  S  Q.
|-------------------------|-14h16p14----14-14h16p14---------------|
|-------------/14---------|----------17-------------17p14---------|
|-/13---/16---------------|---------------------------------------|
|-------------------------|---------------------------------------|
|-------------------------|---------------------------------------|
|-------------------------|---------------------------------------|
|
|     PM    PM     PM|             PM       PM          PM---|
|   E E   E E   E  E E  E    E     E     E  E     E     E  E E
|-------------------------|---------------------------------------|
|-------------------------|---------------------------------------|
|---9------------------11-|--9------------------------------------|
|---------9----11---------|--------------9-------11---------------|
|-------------------------|---------------------------------------|
|-----9-----9------9-9----|--------9--------9-----------9--9-7----|


  G#m/B                B                     G#m/B        B
   E.      E   S  S  S  Q   S S  e    E.      E   S  S  S  Q.     E
|-16------16-----------------------|---------16---------------------|
|-16b17r==16-----------16-------16-|-16b17r==16-----------16--------|
|-16b17r==16-----------16-------16-|-16b17r==16-----------16--------|
|----------------16h18--------x----|----------------16h18-----------|
|----------------------------------|--------------------------------|
|----------------------------------|--------------------------------|
|
|       PM        PM        PM        PM        PM
|  E    E    E    E     E E E    E    E    E    E    Q        E E E
|----------------------------------|--------------------------------|
|----------------------------------|--------------------------------|
|--8---------6------------6------8-|-------6--------------------6-8-|
|-----------------------9----------|-----------------6--------9-----|
|----------------------------------|--------------------------------|
|-------7---------7---------7------|--7---------7-------------------|


  N.C.
                              ~~~~~~~~~
   S  S  S  S  E  S  S  S  S  Q    +S  S
|----------------------------------------|
|----------------------------------------|
|----------------------------------------|
|-16h18p16-------16h18p16----------------|
|----------19p16----------19p16---(16)---|
|----------------------------------------|
|
|        PM       PM          PM|
|  E     E     E  E     E     E E   E
|----------------------------------------|
|----------------------------------------|
|--9-------------------------------11----|
|--------------9-------11----------------|
|----------------------------------------|
|--------9--------9-----------9-9--------|


                              ~~~
   S  S  S  S  E  S  S  S  S  Q.
|------------------------------------|
|------------------------------------|
|------------------------------------|
|-16h18p16-------16h18p16------------|
|-16h18p16-19p16-16h18p16-19p16------|
|----------19p16----------19p16------|
|
|        PM       PM          PM---|
|  E     E     E  E     E     E  E E
|------------------------------------|
|------------------------------------|
|--9---------------------------------|
|--------------9-------11------------|
|------------------------------------|
|--------9--------9-----------9--9-7-|


  B/Eb                                                   B/Eb
   E.      E   S  S  S  Q   E S S    E.      E   S  S  S  Q.     E
|---------------------------------|---------------------------------|
|---------------------------------|----------------------16---------|
|-16b17r==16-----------16---------|-16b17r==16-----------16---------|
|-13b14r==13-----16h18-13-----x-x-|-13b14r==13-----16h18-13---------|
|---------------------------------|---------------------------------|
|---------------------------------|---------------------------------|
|
|       PM        PM        PM       PM        PM
|  E    E    E    E     E E E E      E    E    E    Q        E E E
|---------------------------------|---------------------------------|
|---------------------------------|---------------------------------|
|--8---------6------------6---8---|-------6--------------------6-8--|
|-----------------------9---------|-----------------6--------9------|
|---------------------------------|---------------------------------|
|-------7---------7---------7-----|--7---------7--------------------|


  N.C.
                                              ~~~~
    E  E  E  E  E E  E  E   E  E  E.    T  T  Q..       S
|-/16-16s14-14s=9-9s12-12s|=9s12s16-----------------------|
|-------------------------|------------------14-----------|
|-/13-13s11-11s=6-6s=9--9s|=6s=9s13-----------------------|
|-------------------------|------------16p14-11-----------|
|-------------------------|-------------------------------|
|-------------------------|-------------------------------|
|
|   E  E  E  E  E E  E  E   E  E  E  E        E   E E E
|-------------------------|-------------------------------|
|-------------------------|-------------------------------|
|---9------------------11-|-9-----------------------------|
|---------9----11---------|-------9----------11-----------|
|-------------------------|-------------------------------|
|------9-----9----9--9----|----9-----9------------9-9-7---|


  B/Eb
   E.      E   S  S  S  Q   S S  e    E.      E   S  S  S  Q.     E
|----------------------------------|--------------------------------|
|----------------------------------|--------------------------------|
|-16b17r==16-----------16-------16-|-16b17r==16-----------16--------|
|-13b14r==13-----16h18-13-----x-13-|-13b14r==13-----16h18-13--------|
|----------------------------------|--------------------------------|
|----------------------------------|--------------------------------|
|
|  E    E    E    E     E E E    E    E    E    E    Q        E E E
|----------------------------------|--------------------------------|
|----------------------------------|--------------------------------|
|--8---------6------------6------8-|-------6--------------------6-8-|
|-----------------------9----------|-----------------6--------9-----|
|----------------------------------|--------------------------------|
|-------7---------7---------7------|--7---------7-------------------|


  N.C.
                          ~~~~~
    E   S  S  S  S.    t  Q..          E
|----------------------------------------|
|-[14]-14-12-14-14----14-12b14-----------|
|----------------------------------------|
|----------------------------------------|
|----------------------------------------|
|----------------------------------------|
|
|   E   E     E     E           E E E  E
|----------------------------------------|
|----------------------------------------|
|---9---------------------------------11-|
|-------------9----------------11--------|
|----------------------------------------|
|-------9-----------9-------------9-9----|


                                   ~~~~
   S.      T.   S  T  S.   X  E    Q..          S.
|--------------------------------------------------|
|--------------------------------------------------|
|--------------------------------------------------|
|-16h=====18p==16------------16---14---------------|
|-21b21.5---------19p16----------------------------|
|--------------------------------------------------|
|
|  E         E           E      E       E E E E
|--------------------------------------------------|
|--------------------------------------------------|
|--9-----------------------------------------------|
|------------------------9-------------11----------|
|--------------------------------------------------|
|------------9------------------9---------9-9-7----|


   Chorus
    N.C.                C#5
    Gtr I
    PM---------------------------------------|
    E E E E E E E E     E S S E S E S E  S   E.
||-------------------||-------------------------|
||o-----------------o||-------------------------|
||-------------------||-------------------------|
||-------------------||-6-6-6-6-6-6-6-6--6---6--|
||o-----------------o||-4-4-4-4-4-4-4-4--4---4--|
||--0-0-0-0-0-0-0-0--||-------------------------|
|
|   Gtr II
|                       <                >
|   W                   Q     H         +Q
||-------------------||-------------------------|
||o-----------------o||-9-----9---------(9)\----|
||-------------------||-9-----9---------(9)\----|
||-------------------||-------------------------|
||o-----------------o||-------------------------|
||-------------------||-------------------------|


    N.C.                                C#5
    PM-------------------------------------------------------------|
    S S S S S S S S S S S S S S S S      e  S S  E  S E S E   S    E.
||-----------------------------------||-------------------------------|
||o---------------------------------o||-------------------------------|
||-----------------------------------||-------------------------------|
||-----------------------------------||--6--6-6--6--6-6-6-6---6----6--|
||o---------------------------------o||--4--4-4--4--4-4-4-4---4----4--|
||--0-0-0-0-0-0-0-0-0-0-0-0-0-0-0-0--||-------------------------------|
|
|                                        <                    >
|   W                                    Q       H           +Q
||-----------------------------------||-<5>-----<5>---------(<5>)\----|
||o---------------------------------o||-------------------------------|
||-----------------------------------||-------------------------------|
||-----------------------------------||-------------------------------|
||o---------------------------------o||-------------------------------|
||-----------------------------------||-------------------------------|


  N.C.                              C#5
  PM--------------------------------------------------------|
  S S S S S S S S S S S S S S S S    e S S  E S E S E   S   E.
|---------------------------------|----------------------------|
|---------------------------------|----------------------------|
|---------------------------------|----------------------------|
|---------------------------------|--6-6-6--6-6-6-6-6---6---6--|
|---------------------------------|--4-4-4--4-4-4-4-4---4---4--|
|-0-0-0-0-0-0-0-0-0-0-0-0-0-0-0-0-|----------------------------|
|
| Gtr II
|                                    <                  >
| W                                  Q      H          +Q
|---------------------------------|-12-----12---------(12)\----|
|---------------------------------|--9------9----------(9)\----|
|---------------------------------|--9------9----------(9)\----|
|---------------------------------|----------------------------|
|---------------------------------|----------------------------|
|---------------------------------|----------------------------|


  B5            D5/AA5
  PM----------|
  E E E E E E E E    E  E  E  E Q.         E
|-----------------|--------------------------|
|-----------------|--------------------------|
|-----------------|--2--2--2--2-2------------|
|-4-4-4-4-4-4-4p0-|--2--2--2--2-2------------|
|-2-2-2-2-2-2-2p0-|--0--0--0--0-0------------|
|-----------------|--------------------------|
|
|                    <                >
| W                  Q     H         +Q
|-----------------|--------------------------|
|-----------------|-<5>---<5>-------(<5>)\---|
|-----------------|--------------------------|
|-----------------|--------------------------|
|-----------------|--------------------------|
|-----------------|--------------------------|


    C#5    N.C.           C#5    N.C.           G#5F#5      E5  F#5E5
     Q   E  E  E  E  Q     Q   E  E  E  E  Q     E  E  E  E E E  E E  4x
||----------------------|---------------------|-----------------------||
||o---------------------|---------------------|----------------------o||
||----------------------|--------------11-----|-13-11-11-11-9-9-11-9--||
||----------------------|---------------------|-13-11-11-11-9-9-11-9--||
||o-11--11-11-12-11-12--|-11--11-11-12----11--|-11--9--9--9-7-7--9-7-o||
||---9---9--------------|--9---9--------------|-----------------------||


 Outro
    C#5           E5                 B5
  E  E E  E  E  E  E  E    E  E  E E E E  E  E
|-----------------------|----------------------|
|-----------------------|----------------------|
|-9------------13----11-|--------------8----11-|
|---11-9-11-11----------|----14----9------9----|
|-----------------------|----------------------|
|-----------------12----|-12----12---7---------|
|
| Gtr II
| E  E E  E  Q     E  E    E  E  E E E Q.
|-----------------------|----------------------|
|-----------------------|----------------------|
|-----------------------|----------------------|
|------------------9----|--9-----9-------------|
|---11---11--------7----|--7-----7---9---------|
|----9----9-------------|------------7---------|


    C#5          E5               N.C.
  E  E E  E E  E  E  E    E  E  E  E  E  E  Q
|----------------------|------------------------|
|----------------------|------------------------|
|-9----8----9-13----11-|----------11-13-13-13---|
|---11---11------------|----14------------------|
|----------------------|------------------------|
|----------------12----|-12----12---------------|
|
| E  E E  E Q     E  E    E  E  E  E  E  E  Q
|----------------------|------------------------|
|----------------------|------------------------|
|----------------------|------------------------|
|-----------------9----|--9-----9--4--6-----6---|
|---11---11-------7----|--7-----7---------------|
|----9----9------------|-----------------4------|


    C#5           E5                 B5
  E  E E  E  E  E  E  E    E  E  E E E E  E  E
|-----------------------|----------------------|
|-----------------------|----------------------|
|-9------------13----11-|--------------8----11-|
|---11-9-11-11----------|----14----9------9----|
|-----------------------|----------------------|
|-----------------12----|-12----12---7---------|
|
| E  E E  E  Q     E  E    E  E  E E E Q.
|-----------------------|----------------------|
|-----------------------|----------------------|
|-----------------------|----------------------|
|------------------9----|--9-----9-------------|
|---11---11--------7----|--7-----7---9---------|
|----9----9-------------|------------7---------|


                                  Q=120
    C#5          E5               N.C.
  E  E E  E E  E  E  E    E  E  E  E  E  E  Q
|----------------------|------------------------*|
|----------------------|------------------------*|
|-9----8----9-13----11-|----------11-13-13-11---*|
|---11---11------------|----14------------------*|
|----------------------|------------------------*|
|----------------12----|-12----12---------------*|
|
| E  E E  E Q     E  E    E  E  E  E  E  E  Q
|----------------------|------------------------*|
|----------------------|------------------------*|
|----------------------|------------------------*|
|-----------------9----|--9-----9-----6-----6---*|
|---11---11-------7----|--7-----7---------------*|
|----9----9------------|-----------4-----4------*|
Comments