Cky - Sniped Chords & Tabs

 

Sniped Chords & Tabs

Cky Chords & Tabs

Version: 1 Type: Tab 0 ratings
1 star 2 stars 3 stars 4 stars 5 stars
comments

Sniped Tab

   
Cky-Sniped
Tabbed By Guitar Skater
DGCFAD
OCTAVE pedal

Intro

d-------------------|
a-------------------|
f-------------------|
c------5--------5---|
g--5-7---7---5-7--7-|
D-------------------|

d-------------------------------------------------------------|
a-------------------------------------------------------------|
f-------------------------------------------------------------|
c-------------------------------------------------------------|
g------------------------------8----------------------------8-|
D--0-0-0-0-0-0-0-0-0-0-0-0-0-0---0-0-0-0-0-0-0-0-0-0-0-0-0-0--|

d-------------------------------------------------------------|
a-------------------------------------------------------------|
f-------------------------------------------------------------|
c-------------------------------------------------------------|
g--8-8-8-8-5-5-5-5-2-2-2-2-5-5-5-5----------------------------|
d-----------------------------------5-5-5-5-5-5-5-5-5-5-5-5-3-|

d-----------------------------------------------------------|
a-----------------------------------------------------------|
f-----------------------------------------------------------|
c-----------------------------------------------------------|
g-----------------------------------------------------------|
D--5-5-5-5-5-5-5-5-5-5-5-5-5-5-3--5-5-5-5-7-7-7-8-8-8-7-7-7-|

Verse (Play Entire Verse 2x)
d-------------------------------------------------------------|
a-------------------------------------------------------------|
f-------------------------------------------------------------|
c-------------------------------------------------------------|
g------------------------------8----------------------------8-|
D--0-0-0-0-0-0-0-0-0-0-0-0-0-0---0-0-0-0-0-0-0-0-0-0-0-0-0-0--|
[ Tab from: http://www.guitartabs.cc/tabs/c/cky/sniped_tab.html ]
d-------------------------------------------------------------|
a-------------------------------------------------------------|
f-------------------------------------------------------------|
c-------------------------------------------------------------|
g--8-8-8-8-5-5-5-5-2-2-2-2-5-5-5-5----------------------------|
d-----------------------------------5-5-5-5-5-5-5-5-5-5-5-5-3-|

d-----------------------------------------------------------|
a-----------------------------------------------------------|
f-----------------------------------------------------------|
c-----------------------------------------------------------|
g-----------------------------------------------------------|
D--5-5-5-5-5-5-5-5-5-5-5-5-5-5-3--5-5-5-5-7-7-7-8-8-8-7-7-7-|

d-----------------------------------------------------------|
a-----------------------------------------------------------|
f-----------------------------------------------------------|
c-----------------------------------------------------------|
g-----------------------------------------------------------|
D-9-9-9-9-9-9-9-9-9-9-9-9-9-9-9-9-7-7-----------------------|

d---------------------------------------------------------------------|
a---------------------------------------------------------------------|
f---------------------------------------------------------------------|
c---------------------------------------------------------------------|
g---------------------------------------------------------------------|
D-9-9-9-9-9-9-9-9-9-9-9-9-9-9-9-9-7-7-9-9-9-9-7-7-7-7-4-4-4-4-7-7-7-7-|

Chorus

d-----------------------------------------------------------|
a-----------------------------------------------------------|
f-----------------------------------------------------------|
c--------------10-9-7-10-9-7--------------------------------|
g----------------------------10-9-7-10-9-7------------------|
D-0-0-0-0-0-0-0---------------------------------------------|
Comments