Cky - Sink Into The Underground Chords & Tabs

 

Sink Into The Underground Chords & Tabs

Cky Chords & Tabs

Version: 4 Type: Tab 0 ratings
1 star 2 stars 3 stars 4 stars 5 stars
comments

Sink Into The Underground Tab

cky: sink into the underground
Written by deron miller, tabbed by greco
This song is played in drop d

okay so this is every part of the song, piece it all together yourself

P=pull off, /=slide up, <=pick slide

-----------------------main riff---------------------------
-----------------------------------------------------------
-----------------------------------------------------------
-44-22-66-99-77-66-4---6--22-66-44-22-44-22-4--------------
-44-00-44-77-55-44-2p0-4--22-44-22-00-44-22-44p2p0--------
-44-----------------------22----------44-22-4--------------


-----------------------verse-------------------------------
-----------------------------------------------------------
-----------------------------------------------------------
-4-2/4-2/4--24p2--4-2/4-2/4--2-4p2------------------------
-4-2/4-2/4--2-4p2--4-2/4-2/4--2-4p2------------------------
-42/4-2/4--2-4p2--4-2/4-2/4--2-4p2------------------------

[ Tab from: http://www.guitartabs.cc/tabs/c/cky/sink_into_the_underground_tab_ver_4.html ]
-----------------------bridge------------------------------
-----------------------------------------------------------
-------7--<6--9--11----------------------------------------
-------7--<6--9--11----------------------------------------
-4p2p0-5--<4--7--9-----------------------------------------
-----------------------------------------------------------


-----------------------chorus------------------------------
-----------------------------------------------------------
-----------------------------------------------------------
-4--4-7-4-----4--4-7-4---------0-2---0-2--0-2--------------
-4--4-7-4-2-4-4--4-7-4-5p4-2p0-0-2---0-2--0-2--------------
-4--4-7-4-----4--4-7-4---------0-2---0-2--0-2--------------


-----------------------------------------------------------
-----------------------------------------------------------
-----------------------------------------------------------
-0-2---0-2----------4--------------------------------------
-0-2---0-2----4p2p0-4--------------------------------------
-0-2---0-2--0-------4--------------------------------------
              end on^(at end of song)
Comments