Cky - Sink Into The Underground Chords & Tabs

 

Sink Into The Underground Chords & Tabs

Cky Chords & Tabs

Version: 1 Type: Tab 0 ratings
1 star 2 stars 3 stars 4 stars 5 stars
comments

Sink Into The Underground Tab

TUNING half step down
Figure 1  - This riff is played throughout the verses of the song

D :----------------------------------------------------------------------------------------------------------------
B :-----------------------------------------------------------------------------------------------------------------
A:-------------5-5---8-8---6-6---5-5---3--1--5-------------5-5---3-3---1-1----------------------5---3---1
E :--3-3--6-6-----------------------------------------0--1-1----------------------3-3---1-1---3-3------------


Figure 2 - Pre-chorus
[ Tab from: http://www.guitartabs.cc/tabs/c/cky/sink_into_the_underground_tab.html ]
D :-----8---------------7-----10----12--12--12--12--12-------------------------------------------------------
B :-----8---------------7-----10----12--12--12--12--12-------------------------------------------------------
A:-----6---------------5------8-----10--10--10--10--10-------------------------------------------------------
E :-----------------------------------------------------------------------------------------------------------------


Figure 3 -Chorus

D :----------------------------------------------------------------------------------------------------------------
B :---------------------------------------------------------------------------------1--3----1--3----1--3--------
A:---------1-------3/5/3--------------------1-------3/6---5--3--1--------------------------------------------
E :-----3------3------------1--3---------3-------3---------------------1---------------------------------------

I didn't put the little "repeat" references in here, just repeat these riffs when neccessary
Comments