Cky - Shock And Terror Chords & Tabs

 

Shock And Terror Chords & Tabs

Cky Chords & Tabs

Version: 5 Type: Tab 0 ratings
1 star 2 stars 3 stars 4 stars 5 stars
comments

Shock And Terror Tab

Shock & Terror by CKY
Tabs by Jared Denham
Tuning: One whole step down

/=slide
~=let ring

Riff 1(Guitar 1)
-|--------------------------------------------------|
-|--------------------------------------------------|
-|--------------------------------------------------|
-|----------4-6-------------------------------------|
-|-6-7-44-7-----9-6-4-2-----------------------------|
-|--------------7-4-2-0-----------------------------|

Riff 2(Guitar 1)
-|--------------------------------------------------|
-|--------------------------------------------------|
-|--------------------------------------------------|
-|--------------------------------------------------|
-|-7-9-7---7-9/11-9-6-4-2---------------------------|
-|-------9--------7-4-2-0---------------------------|

Riff 3(Guitar 1)
-|--------------------------------------------------|
-|--------------------------------------------------|
-|--------------------------------------------------|
-|--------------------------------------------------|
-|-7-9-7---7-9/11-99----1010------------------------|
-|-------9--------77-00-8 8 -00---------------------|
[ Tab from: http://www.guitartabs.cc/tabs/c/cky/shock_and_terror_tab_ver_5.html ]
Verse
-|--------------------------------------------------|
-|--------------------------------------------------|
-|----66----------------------66--------------------|
-|-------66-77-------------------66-77--------------|
-|-44----------77----------44----------77-----------|
-|----------------44-77-88----------------44-77-55--|

Chorus
-|--------------------------------------------------|
-|--------------------------------------------------|
-|--------------------------------------------------|
-|----------------------------------6-4-------------|
-|-4-7-4-7-4-------4--------------------7-4---------|
-|-----------7-4-7---7-4-77-7-7-444-----------------|

Outro
-|--------------------------------------------------|
-|--------------------------------------------------|
-|--------------------------------------------------|
-|--------------------------------------------------|
-|-7-9-7---7-9/11-99----1010----11~~~~~-------------|
-|-------9--------77-00-8 8 -00-9~~~~~~-------------|


Song Layout

Riff 1
Riff 2
Riff 1
Riff 3
Riff 1
Riff 2
Riff 1
Riff 3
Verse(4x)
Riff 1
Riff 2
Riff 1
Riff 3
Verse(4x)
Chorus(4x)
Riff 1
Riff 2
Riff 1
Riff 3
Verse(4x)
Chorus(4x)
Riff 1
Riff 2
Riff 1
Riff 3
Riff 1
Riff 2
Riff 1
Outro

My guitar teacher also helped me figure this one out. Hey Massachusetts, how are ya 
up without me?
Comments