Cky - Shock And Terror Chords & Tabs

 

Shock And Terror Chords & Tabs

Cky Chords & Tabs

Version: 1 Type: Bass Tab 0 ratings
1 star 2 stars 3 stars 4 stars 5 stars
comments

Shock And Terror Bass Tab

Artist: Cky
Album: Infiltrate, Destroy, Rebuild
Song: Shock And Terror

Ok, I looked at the other tabs, and to me, THIS is what sounds right.
It was really hard to figure it out.

Intro:
G|--------------2----------------------2--------|
D|-020-----0-24---4-2-0---020-----0-24---4-2-0--|
A|------2----------------------2----------------|
E|----------------------------------------------|
[ Tab from: http://www.guitartabs.cc/tabs/c/cky/shock_and_terror_btab.html ]
G|--------------2----------------------22----33----|
D|-020-----0-24---4-2-0---020-----0-24----44---44--|
A|------2----------------------2-------------------|
E|-------------------------------------------------|

Verse:
G|------------------------------------------------------|
D|------------------------------------------------------|
A|-2-2-------05-4---4--------2-2-----------55----77-----|
E|----------------5----------------------5----55----55--|

Chorus:
G|------------------------------------------------------------|
D|--------0----------------------------------------4-2--------|
A|-2-0---2-----2-0----0-2-------------------------------4--0--|
E|------------------2-----2-------5~--5------3-3--------------|

That's it, good song, and please rate it.

Questions or comments?
vanceaase67@hotmail.com
Comments