Cky - Plastic Plan Chords & Tabs

 

Plastic Plan Chords & Tabs

Cky Chords & Tabs

Version: 7 Type: Tab 0 ratings
1 star 2 stars 3 stars 4 stars 5 stars
comments

Plastic Plan Tab

This is every thing apart from the solo.
ED
BA
GF
DC
AG
ED
Intro Power chords palm muted
E----------------------------------------------------------------------------|
B----------------------------------------------------------------------------|
G----------------------------------------------------------------------------|
D----------------------------------------------------------------------------|
A--55-555-55-555--7-5---------------22-2222--22-222-32--75-)-----------------|
E--33-333-33-333------7-5-3-5-7-0---00-0000--00-000---35---)x2---------------|

[ Tab from: http://www.guitartabs.cc/tabs/c/cky/plastic_plan_tab_ver_7.html ]
VERSE/ CHOURUS (Power chords plam mutted)
E----------------------------------------------------------------------------|
B----------------------------------------------------------------------------|
G----------------------------------------------------------------------------|
D----------------------------------------------------------------------------|
A--55555555-7-5--------------222222222-3-2---7-5--)--------------------------|
E--33333333----7-5-3-5-7-0---000000000----3-5-----)-x4-----------------------|

PRE CHOURUS  (power chords palm muted)
E-----------------------------------------------------------------------------|
B-----------------------------------------------------------------------------|
G-----------------------------------------------------------------------------|
D-----------------------------------------------------------------------------|
A-55555555-----------------2222222222222222-7777777777777777--------------)---|
E-33333333-5-3-5-3-5-3-5-3-0000000000000000-5555555555555555-8-7-5-3-5-7-5)---|X2

ORDER
Intro
verse
pre chourus
chourus
verse
pre chourus
and thats it
Comments