Cky - Plastic Plan Chords & Tabs

 

Plastic Plan Chords & Tabs

Cky Chords & Tabs

Version: 3 Type: Tab 0 ratings
1 star 2 stars 3 stars 4 stars 5 stars
comments

Plastic Plan Tab

its pretty damn close, to me its perfect but my guiar tuning may be messed up

------------------------------------------------
------------------------------------------------
------------------------------------------------
------------------------------------------------
---------------------------------8-6------------
4-4-4-4-4--4-4-4-4-4-4-4-4-4-4-4-----8-6-4-6-8-6


---------------------------------------------
---------------------------------------------
---------------------------------------------
---------------------------------------------
---------------------------------4-3-1---8-6-
1-1-1-1-1--1-1-1-1-1-1-1-1-1-1-1-------4-----

that whole thing X6 (2 without lyrics, 4 with)

chorus:
one day ill try....
[ Tab from: http://www.guitartabs.cc/tabs/c/cky/plastic_plan_tab_ver_3.html ]
----------------------------------------------------------------
----------------------------------------------------------------
----------------------------------------------------------------
----------------------------------------------------------------
----------------------------------------------------------------
4-4-4-4-4-4-4-4--4-6-4-6-4-6/8--1-1-1-1-1-1-1-1-1-1-1-1-1-1-1-1-

-----------------------------------------------------
-----------------------------------------------------
-----------------------------------------------------
-----------------------------------------------------
-----------------------4--3--1---1--3--1---1-1--1-1-1
2-2-2-2-2-2-2-2-2-2-2-2--------4---------------------

well thats the song, like i said, my guitar may be tuned all weird but on mine,
it sounds perfect, enjoy. email me for anything theckyguy502@aol.com
Comments