Cky - Plastic Plan Chords & Tabs

 

Plastic Plan Chords & Tabs

Cky Chords & Tabs

Version: 1 Type: Tab 0 ratings
1 star 2 stars 3 stars 4 stars 5 stars
comments

Plastic Plan Tab

   
#----------------------------------PLEASE NOTE--------------------------------#
#This file is the author's own work and represents their interpretation of the#
#song. You may only use this file for private study, scholarship, or research.#
#-----------------------------------------------------------------------------#
#-- File created with Instab - http://www.pconline.com/~smcarey/instab.html --#
#-----------------------------------------------------------------------------#

Author/Artist: CKY
Title: Plastic Plan
Album: Infiltrate Destroy Rebuild
Tuning: Eb Ab Db Gb Bb Eb
Transcribed by: Greg Kong



Pretty cool and very easy song.
These 2 parts pretty much make up the entire song.
Ttheres some variation here and there, but you can figure that out.


[ Tab from: http://www.guitartabs.cc/tabs/c/cky/plastic_plan_tab.html ]
Intro/Verse/Chorus
-|---------------------------------------------------------------|-
-|---------------------------------------------------------------|-
-|---------------------------------------------------------------|-
-|--66-66-66-66----------------------33-33-33-33------------3-1--|-
-|--66-66-66-66--6/8\6---------------33-33-33-33----3-1---1------|-
-|--44-44-44-44--------8-6-6/8-6-4---11-11-11-11--1-----3--------|-
                                                                              

Pre-chorus
-|----------------------------------------------------------|-
-|----------------------------------------------------------|-
-|----------------------------------------------------------|-
-|--6-------------------3---4---1111-1010--88-66-88-666666--|-
-|--6-------------------3---4---1111-1010--88-66-88-666666--|-
-|--4---4-6-4-6-4-6/8---1---2----9-9--8-8--66-44-66-444444--|-
   10x                 16x 12x                                                


Comments