Cky - Plastic Plan Chords & Tabs

 

Plastic Plan Chords & Tabs

Cky Chords & Tabs

Version: 3 Type: Bass Tab 0 ratings
1 star 2 stars 3 stars 4 stars 5 stars
comments

Plastic Plan Bass Tab

Cky
Plastic Plan

Intro

G| -----------------------------------------------------------------|
D| -----------------2-0---------------------------------------2-0---|
A| ---------------------2-0---0-2---------------------3-2-0-2-------|
E| -3-3-3-3-3-3-3-3---------3-----3-0-0-0-0-0-0-0-0-0---------------|


G| -----------------------------------------------------------------|
D| -----------------2-0---------------------------------------2-0---|
A| ---------------------2-0---0-2---------------------3-2-0-2-------|
E| -3-3-3-3-3-3-3-3---------3-----3-0-0-0-0-0-0-0-0-0---------------|


Verse

G| -----------------------------------------------------------------|
D| -----------------2-0---------------------------------------2-0---|
A| ---------------------2-0---0-2---------------------3-2-0-2-------|
E| -3-3-3-3-3-3-3-3---------3-----3-0-0-0-0-0-0-0-0-0---------------|

G| -----------------------------------------------------------------|
D| -----------------2-0---------------------------------------2-0---|
A| ---------------------2-0---0-2---------------------3-2-0-2-------|
E| -3-3-3-3-3-3-3-3---------3-----3-0-0-0-0-0-0-0-0-0---------------|

G| -----------------------------------------------------------------|
D| -----------------2-0---------------------------------------2-0---|
A| ---------------------2-0---0-2---------------------3-2-0-2-------|
E| -3-3-3-3-3-3-3-3---------3-----3-0-0-0-0-0-0-0-0-0---------------|

G| -----------------------------------------------------------------|
D| -----------------2-0---------------------------------------2-0-2-|
A| ---------------------2-0---0-2---------------------3-2-0-2-------|
E| -3-3-3-3-3-3-3-3---------3-----3-0-0-0-0-0-0-0-0-0---------------|

G| -----------------------------------------------------------------|
D| -----------------------------------------------------------------|
A| ---------------------0---0---2-----------------------------------|
E| -3-3-3-3-3-3-3-3-3-3---3---3-----0-0-0-0-0-0-0-0-0-0-0-0-0-0-0-0-|

G| -----------------------------------------------------------------|
D| -----------------------------------------------------------------|
A| -------------------------3-3-2-2-0-0-----0-0-2-2-0-0-0-0-0-0-0-0-|
E| -1-1-1-1-1-1-1-1-1-1-1-1-------------3-3-------------------------|

G| -----------------------------------------------------------------|
D| -----------------------------------------------------------------|
A| ---------------------0---0---2-----------------------------------|
E| -3-3-3-3-3-3-3-3-3-3---3---3-----0-0-0-0-0-0-0-0-0-0-0-0-0-0-0-0-|

G| -----------------------------------------------------------------|
D| -----------------------------------------------------------------|
A| -------------------------3-3-2-2-0-0-----0-0-2-2-0-0-0-0-0-0-0-0-|
E| -1-1-1-1-1-1-1-1-1-1-1-1-------------3-3-------------------------|


Chorus

G| -----------------------------------------------------------------|
D| ----------------2-0---------------------------------------2-0----|
A| --------------------2-0---0-2----------------------3-2-0-2-------|
E| -3-3-3-3-3-3-3-3---------3-----3-0-0-0-0-0-0-0-0-0---------------|

G| -----------------------------------------------------------------|
D| -----------------2-0---------------------------------------2-0---|
A| ---------------------2-0---0-2---------------------3-2-0-2-------|
E| -3-3-3-3-3-3-3-3---------3-----3-0-0-0-0-0-0-0-0-0---------------|


Verse

G| -----------------------------------------------------------------|
D| -----------------2-0---------------------------------------2-0---|
A| ---------------------2-0---0-2---------------------3-2-0-2-------|
E| -3-3-3-3-3-3-3-3---------3-----3-0-0-0-0-0-0-0-0-0---------------|

G| -----------------------------------------------------------------|
D| -----------------2-0---------------------------------------2-0---|
A| ---------------------2-0---0-2---------------------3-2-0-2-------|
E| -3-3-3-3-3-3-3-3---------3-----3-0-0-0-0-0-0-0-0-0---------------|

| -------------------------------------------------------------------|
D| ------------------------------------------------------------------|
A| ---------------------0---0---2------------------------------------|
E| -3-3-3-3-3-3-3-3-3-3---3---3-----0-0-0-0-0-0-0-0-0-0-0-0-0-0-0-0--|

G| -----------------------------------------------------------------|
D| -----------------------------------------------------------------|
A| -------------------------3-3-2-2-0-0-----0-0-2-2-0-0-0-0-0-0-0-0-|
E| -1-1-1-1-1-1-1-1-1-1-1-1-------------3-3-------------------------|
[ Tab from: http://www.guitartabs.cc/tabs/c/cky/plastic_plan_btab_ver_3.html ]
G| -----------------------------------------------------------------|
D| -----------------------------------------------------------------|
A| ---------------------0---0---2-----------------------------------|
E| -3-3-3-3-3-3-3-3-3-3---3---3-----0-0-0-0-0-0-0-0-0-0-0-0-0-0-0-0-|

G| -----------------------------------------------------------------|
D| -----------------------------------------------------------------|
A| -------------------------3-3-2-2-0-0-----0-0-2-2-0-0-0-0-0-0-0-0-|
E| -1-1-1-1-1-1-1-1-1-1-1-1-------------3-3-------------------------|


Chorus

G| -----------------------------------------------------------------|
D| ----------------2-0---------------------------------------2-0----|
A| --------------------2-0---0-2----------------------3-2-0-2-------|
E| -3-3-3-3-3-3-3-3---------3-----3-0-0-0-0-0-0-0-0-0---------------|

G| -----------------------------------------------------------------|
D| -----------------2-0---------------------------------------2-0---|
A| ---------------------2-0---0-2---------------------3-2-0-2-------|
E| -3-3-3-3-3-3-3-3---------3-----3-0-0-0-0-0-0-0-0-0---------------|

G| -----------------------------------------------------------------|
D| -----------------2-0---------------------------------------2-0---|
A| ---------------------2-0---0-2---------------------3-2-0-2-------|
E| -3-3-3-3-3-3-3-3---------3-----3-0-0-0-0-0-0-0-0-0---------------|

G| -----------------------------------------------------------------|
D| -----------------2-0---------------------------------------2-0---|
A| ---------------------2-0---0-2---------------------3-2-0-2-------|
E| -3-3-3-3-3-3-3-3---------3-----3-0-0-0-0-0-0-0-0-0---------------|

G| -----------------------------------------------------------------|
D| -----------------2-0---------------------------------------2-0---|
A| ---------------------2-0---0-2---------------------3-2-0-2-------|
E| -3-3-3-3-3-3-3-3---------3-----3-0-0-0-0-0-0-0-0-0---------------|


Interlude / Bridge

G| -----------------------------------------------------------------|
D| ----------------------------16-15--------------------------------|
A| -16-14----16-14----16-14----------16-----14-10----14-10----14-10-|
E| --------------------------------------0--------------------------|

G| ------------------------------------------------------------------|
D| -----------------------------------------16-15--------------------|
A| --14-10-12----16-14----16-14----16-14----------16----14-10----14--|
E| ------------------------------------------------------------------|

G| -----------------------------------------------------------------|
D| -----------------------------------------------------------------|
A| -10----14-10----14-10---14-10-12---------------------------3-3---|
E| -----------------------------------1-1-1-1-1-1-1-1-1-1-1-1-------|

G| -------------------------------------|
D| -------------------------------------|
A| -2-2-0-0-----0-0-2-2-0-0-0-0-0-0-0-0-|
E| ---------3-3-------------------------|


Chorus

G| -----------------------------------------------------------------|
D| ----------------2-0---------------------------------------2-0----|
A| --------------------2-0---0-2----------------------3-2-0-2-------|
E| -3-3-3-3-3-3-3-3---------3-----3-0-0-0-0-0-0-0-0-0---------------|

G| -----------------------------------------------------------------|
D| -----------------2-0---------------------------------------2-0---|
A| ---------------------2-0---0-2---------------------3-2-0-2-------|
E| -3-3-3-3-3-3-3-3---------3-----3-0-0-0-0-0-0-0-0-0---------------|

G| -----------------------------------------------------------------|
D| -----------------2-0---------------------------------------2-0---|
A| ---------------------2-0---0-2---------------------3-2-0-2-------|
E| -3-3-3-3-3-3-3-3---------3-----3-0-0-0-0-0-0-0-0-0---------------|

G| -----------------------------------------------------------------|
D| -----------------2-0---------------------------------------2-0---|
A| ---------------------2-0---0-2---------------------3-2-0-2-------|
E| -3-3-3-3-3-3-3-3---------3-----3-0-0-0-0-0-0-0-0-0---------------|

   ~~~~~~~~~~~~~~~~~~~~~~~~~~ Fade out ~~~~~~~~~~~~~~~~~~~~~~~~~~~~~

G| -----------------------------------------------------------------|
D| -----------------2-0---------------------------------------2-0---|
A| ---------------------2-0---0-2---------------------3-2-0-2-------|
E| -3-3-3-3-3-3-3-3---------3-----3-0-0-0-0-0-0-0-0-0---------------|

   ~~~~~~~~~~~~~~~~~~~~~~~~~~ Fade out ~~~~~~~~~~~~~~~~~~~~~~~~~~~~~


Written and tabbed by me bob. Thanks
Comments