Cky - My Promiscuous Daughter Chords & Tabs

 

My Promiscuous Daughter Chords & Tabs

Cky Chords & Tabs

Version: 2 Type: Tab 0 ratings
1 star 2 stars 3 stars 4 stars 5 stars
comments

My Promiscuous Daughter Tab

Tabbed by kevin konopi

Intro/verse Whole step Down  DGCFAD    Guitar1
1|-----------------------------------------------------------------|
2|-----------------------------------------------------------------|
3|-----------------------------------------------------------------|
4|---------9-7---7---------9-7---7---------------------------------|
5|-----7-7-----7-------7-7-----7---5-5-5-5-5-5-5-5-5-5-5-5-5-5-5-5-|
6|-0-0-------------0-0-------------3-3-3-3-3-3-3-3-3-3-3-3-3-3-3-3-|

Guitar 2
1|-----------------------------------------------------------------|
2|-----------------------------------------------------------------|
3|-----------------------------------------------------------------|
4|-----------------------------------------------------------------|
5|-2-2-2-2-2-2-2-2-2-2-2-2-2-2-2-2-5-5-5-5-5-5-5-5-5-5-5-5-5-5-5-5-|
6|-0-0-0-0-0-0-0-0-0-0-0-0-0-0-0-0-3-3-3-3-3-3-3-3-3-3-3-3-3-3-3-3-|
[ Tab from: http://www.guitartabs.cc/tabs/c/cky/my_promiscuous_daughter_tab_ver_2.html ]
Chorus Guitar1
1|-----------------------------------------------------------------|
2|-----------------------------------------------------------------|
3|-----------------------------------------------------------------|
4|-9-9-9-9-9-9-9-9-9-9-9-9-9-9-9-912121212121212121212121212121212-|
5|-7-7-7-7-7-7-7-7-7-7-7-7-7-7-7-710\9-9-9-9-910\9-9-9-9-910\9-9-9-|
6|-0-0-0-0-0-0-0-0-0-0-0-0-0-0-0-0---------------------------------|

Guitar 2
1|-----------------------------------------------------------------|
2|-----------------------------------------------------------------|
3|-----------------------------------------------------------------|
4|---------------------------------7-7-7-7-7-7-7-7-7-7-7-7-7-7-7-7-|
5|-2-2-2-2-2-2-2-2-2-2-2-2-2-2-2-2-5-5-5-5-5-5-5-5-5-5-5-5-5-5-5-5-|
6|-0-0-0-0-0-0-0-0-0-0-0-0-0-0-0-0-5-5-5-5-5-5-5-5-5-5-5-5-5-5-5-5-|

Interlude
1|-------4-4---2-2---0-2---0-2---2-0-2-------|
2|-0-2-----------------------0-----------0---|
3|-------------------------------------------|
4|-------------------------------------------|
5|-------------------------------------------|
6|-------------------------------------------|

Bridge

-----------------------------------------------------------------------------|
-----------------------------------------------------------------------------|
-----------------------------------------------------------------------------|
-----------------------------------------------------------------------------|
----/7p4------------------------/7p4-----------------------------------------|
-0-------7---0---3-/5-/5---0--0------7-0--3-5-3-5----------------------------| x5
Comments