Cky - Knee Deep Chords & Tabs

 

Knee Deep Chords & Tabs

Cky Chords & Tabs

Version: 3 Type: Tab 0 ratings
1 star 2 stars 3 stars 4 stars 5 stars
comments

Knee Deep Tab

   
CKY
"Knee Deep"
tabbed by Nosferatu12786@aol.com

tuned 1/2 step down (Eb Bb Gb Db Ab Eb)high to low.

intro/verse
|---------------------------------------
|---------------------------------------
|--------9b11r9-------------------------
|------9--------9--7-7--5-7-------------
|--7-------------------------7---5------
|----------------------------5---3------


|---------------------------------------
|---------------------------------------
|--------9b11r9-------------------------
|------9--------9--7-7--5-0--7---5------
|--7-------------------------5---3------
|--0------------------------------------

[ Tab from: http://www.guitartabs.cc/tabs/c/cky/knee_deep_tab_ver_3.html ]
chorus
|---------------------------------------
|---------------------------------------
|---------------------------------------
|-----------------7---5-----------------
|--7---5---2~-----5---3---2~------------
|--5---3---0~-------------0~------------


bridge
|---------------------------------------
|---------------------------------------   
|---------------------------------------   part I
|------------4--------------------------
|--4--7-9-4----4-7-9-7--9b10r9-7--------
|--2------2-----------------------------

|---------------------------------------
|---------------------------------------
|---------------------------------------   partII
|-------------4-------------------------
|--7---6-4-4----4-7-9-7--9b10r9-7-------
|--5---4-2-2----------------------------


that's all of it, i suppose. listen to the song to get the order of the bridge.
i might have left out a part or two, but this is what i figured out. email me at
nosferatu12786@aol.com if you have questions or comments.
Comments