Cky - King Of Rock And Roll Chords & Tabs

 

King Of Rock And Roll Chords & Tabs

Cky Chords & Tabs

Version: 1 Type: Tab 0 ratings
1 star 2 stars 3 stars 4 stars 5 stars
comments

King Of Rock And Roll Tab

Tabbed by: TheMutts (st_jimmy_themutts@yahoo.com)

Cky - King of Rock and Roll (viva la bam theme)

Standard tuning

Intro/main riff

|---------------------------------------|
|---------------------------------------|
|---------------------------------------|
|---------------------------------------|
|---------------------------------6h8---|
|-0--0h3-0--0h3-0--0h3-0--0h3-6h8-------|


Prechorus
"rock and roll, rock and roll.."
|----------------------------------|
|----------------------------------|
|----------------------------------|
|----------------------------------|
|----4-4-4-4-4-4--2-2--2-2-2-2-2-2-|
|-0--2-2-2-2-2-2--3-3--0-0-0-0-0-0-|


Solo
[ Tab from: http://www.guitartabs.cc/tabs/c/cky/king_of_rock_and_roll_tab.html ]
|--------------------------3---3----------------------------------------------|
|----------0------5b-3-5-3---4-------0-1h3-1h2-1h3-1h2-1h3-1h2-1h3-1h2-3-2-3--|
|-4b-2-4-2---2-4------------------4b------------------------------------------|
|-----------------------------------------------------------------------------|
|-----------------------------------------------------------------------------|
|-----------------------------------------------------------------------------|

------------------6s8b-6-7b-4--------------------------|
-----------0-------------------6b-4-5--6b-4-0--6b-4-2--|
--4b-2-4-2---2-4---------------------------------------|
-------------------------------------------------------|
-------------------------------------------------------|
-------------------------------------------------------|

Second part Main Riff
|-----------------|
|----------0------|
|-4b-2-4-2---2-4--|
|-----------------|
|-----------------|
|-----------------|
Comments