Cky - Inhuman Creation Station Chords & Tabs

 

Inhuman Creation Station Chords & Tabs

Cky Chords & Tabs

Version: 8 Type: Tab 0 ratings
1 star 2 stars 3 stars 4 stars 5 stars
comments

Inhuman Creation Station Tab

   
-------------------------------------------------------------------------------
			     INHUMAN CREATION STATION - Cky
-------------------------------------------------------------------------------
Tabbed by:Rafa88offspring
Email:rafa88offspring@hotmail.com

Tuning:Standard

I haven't seen a good tab for this song, so i made my own version of it ;)
it's 90% correct, and the ending might be totally wrong, but everything else it's almost correct.

Intro/verse (Riff 1)
e|-----------------------|
B|-----------------------|
G|-----------------------|
D|--------5--------------|
A|--5--8---------5--55---|
E|----------h8p5---------|

(Riff 2)
e|---------------------------|
B|---------------------------|
G|---------------------------|
D|----2h3p2p0----0--7-5p4----|
A|--3---------3-----------h8-|
E|---------------------------|
[ Tab from: http://www.guitartabs.cc/tabs/c/cky/inhuman_creation_station_tab_ver_8.html ]
Bridge
e|----------------|
B|----------------|
G|-----5h7/10\7-7-|
D|-5h7------------|
A|----------------|
E|----------------|

the last time you play bridge play it like this
e|-----------------|
B|-----------------|
G|-----5h7-----5h7-|
D|-5h7-----5h7-----|
A|-----------------|
E|-----------------|

Chorus (just strum this chords) first, you play them normal and then you play them palm muted
e|--------|
B|--------|
G|--5--7--|
D|--5--7--|
A|--3--5--|
E|--------|

Ending
e|-----------------------------------|
B|-----------------------------------|
G|-----------------------------77-77-|
D|---------5h6-6-5---5-6---5-6-77-77-|
A|-5-55555---------8-----8-----55-55-|
E|-----------------------------------|


| /  slide up
| \  slide down
| h  hammer-on
| p  pull-off
| ~  vibrato
| +  harmonic
| x  Mute note
===============================================================================
Comments