Cky - Inhuman Creation Station Chords & Tabs

 

Inhuman Creation Station Chords & Tabs

Cky Chords & Tabs

Version: 5 Type: Tab 0 ratings
1 star 2 stars 3 stars 4 stars 5 stars
comments

Inhuman Creation Station Tab

Artist: Derron Miller
Band: cky
song: inhuman creation station
tabber: Alex k.
e-mail: blurrvision99@aol.com

                tunning: Drop D
-----------------------------------------------------
-----------------------------------------------------
-----------------------------------------------------
-------------7--------------------2-2----2-2---------
---7----10------------------------2-2----2-2---------
-----------------10----7----------0-0----0-0---------  x2

-----------------------------------------------------
-----------------------------------------------------
-----------------------------------------------------
-----4---5---4---2---0-------9----7------------------
--5---------------------2--------------10----9-------
-----------------------------------------------------  x1
[ Tab from: http://www.guitartabs.cc/tabs/c/cky/inhuman_creation_station_tab_ver_5.html ]
-----------------------------------------------------
-----------------------------------------------------
----------------------------2------------------------
-2---2--x1------0---2---5-------5---2---2-2--2-2-----
-2---2----------------------------------2-2--2-2-----
-0---0----------------------------------0-0--0-0-----  x4

-----------------------------------------------------
-----------------------------------------------------
----------------------4444444444444444---------------
---5555555555555555---2222222222222222---------------
---3333333333333333----------------------------------
-----------------------------------------------------  x1

-----------------------------------------------------
-----------------------------------------------------
--------------2--------------------------------------
--0---2---5-------5---2-----2-2--2-2-----------------
----------------------------2-2--2-2-----------------
----------------------------0-0--0-0-----------------  x4

-----------------------------------------------------
-----------------------------------------------------
----------------------4444444444444444---------------
---5555555555555555---2222222222222222---------------
---3333333333333333----------------------------------
-----------------------------------------------------  x1

repeat the whole thing...thats it...have fun
Comments