Cky - Frenetic Amnesic Chords & Tabs

 

Frenetic Amnesic Chords & Tabs

Cky Chords & Tabs

Version: 2 Type: Tab 0 ratings
1 star 2 stars 3 stars 4 stars 5 stars
comments

Frenetic Amnesic Tab

   
Frenetic F***in' -A-mnesic
D-G-C-F-A-D


Intro/Verses
|------------------------|--------------------------|-----------------------|
|------------------------|--------------------------|-----------------------|
|------------------------|--------------------------|-----------------------|
|------------------------|--------------------------|-----------------------|
|-0000-7-0000-7-00-7-5-3-|------5------5----5-7-5-3-|-----3-----3---3-5-3-1-|
|------------------------|-3333---3333---33---------|-1111--1111--11--------|
         (x2)

Pre-chorus
|-------------|-----------------------------|
|-------------|-----------------------------|
|-------------|-2222222222222222------------|
|-----5-------|-2222222222222222-3--0h5-----|
|-0-3-------5-|-0000000000000000-3--0h3-0h5-|
|-------0-3---|------------------1------0h3-|
                ****************
                    (x2)
[ Tab from: http://www.guitartabs.cc/tabs/c/cky/frenetic_amnesic_tab_ver_2.html ]
"You seem to happy to reveal yourself..." "Theres no resentment here."
|--------------------------------------|-----------------------------|
|--------------------------------------|-----------------------------|
|--------------------------------------|-2222222222222222------------|
|--------------------------------------|-2222222222222222-3--0h5-----|
|-555555555555-33-55-777777-88-77-55-3-|-0000000000000000-3--0h3-0h5-|
|--------------------------------------|------------------1------0h3-|
                                         ****************

 Solo/ Break thing
|--------------------------------------------------|-------------|
|--------------------------------------------------|-------------|
|--------------------------------------------------|-------------|
|------------7-----5----------------10-----10-9-7--|-----5-------|
|------7-------------3-------10--------------------|-0-3------5--|
|-55-5---5-5---5-5------88-8----8-8----8-8---------|-------0-3---|
            (x how ever many he plays it)

Yeah thats it just put all the crap where it goes...
...Mark Davidson...
Comments