Cky - Flesh Into Gear Solo Chords & Tabs

 

Flesh Into Gear Solo Chords & Tabs

Cky Chords & Tabs

Version: 1 Type: Tab 0 ratings
1 star 2 stars 3 stars 4 stars 5 stars
comments

Flesh Into Gear Solo Tab

Cky
Flesh into Gear (solo)
Deron miller of Cky

S=slide


E ---------------------------------------------------------------------------------------------------------
B ---------------------------------------------------------------------------------------------------------
G ----------------------1-------------------------------------------------------1-------------------------
D ---------------------------4--2--4--2------------4--2-----------------------------4--2---------------
A ------2--4-4-4--4-----------------------4--2------------------2--2---2-------------------4-4-------
E ---------------------------------------------------------------------------------------------------------

E ---------------------------------------------------------------------------------------------------------
B ---------------------------------------------------------------------------------------------------------
G ---1-------------------------1--------------------------------------------------------------------------
D ---------4--2--4-----2--4-------4--2-----------------------------------------------------------------
A -------------------------------------------4--4------------2--4--2------------------2--4--2----0--0-
E -------------------------------------------------------4-----------------4--2-----0--------------------

E ---------------------------------------------------------------------------------------------------------
B ---------------------------------------------------------------------------------------------------------
G ------------------------------------4--6----------------------------------------------------------------
D ----------6S4--2--4--2—4S6---------------------4--4--------6—4S2--4--2—4S6S4--2-------
A ----------------------------------------------------------------------------------------------------4--4
E ---------------------------------------------------------------------------------------------------------

[ Tab from: http://www.guitartabs.cc/tabs/c/cky/flesh_into_gear_solo_tab.html ]
E ---------------------------------------------------------------------------------------------------------
B ---------------------------------------------------------------------------------------------------------
G -------------------------------4--6---------------------------------------------------------------------
D -----6S4 --2--4--2—4S6--------------------------6S4--2--4--2—4S6--4--2--------------------
A ------------------------------------------4--4--------------------------------------------4--4---------
E ---------------------------------------------------------------------------------------------------------


E ---------------------------------------------------------------------------------------------------------
B ---------------------------------------------------------------------------------------------------------
G ---------------------------------------------------------------------------------------------------------
D ----------------------------------------------------6S4--2--4—2--4S--4--2------------------------
A ---------2--4--2-------------2--4--2--0--0----------------------------------------2--2--------------
E -----4-------------4--2--0-----------------------------------------------------------------------------


E ---------------------------------------------------------------------------------------------------------
B ---------------------------------------------------------------------------------------------------------
G --------------------------------4--4--------------------------------------------------------------------
D ------6S4--2--4--2—4S6-----------------------6—4S2--4--2—4S6—4S2---------------------
A ----------------------------------------4--4-------------------------------------------2--2------------
E ---------------------------------------------------------------------------------------------------------

E --------------------------------------------------------------------------------------------------------
B --------------------------------------------------------------------------------------------------------
G --------------------------------4--6---4---------------------------------------------------------------
D ----6--4--2--4--2—4S6-----------------6-----------2--4-------------------------------------------
A ----------------------------------------------------------------4--2------------------------------------ 
E --------------------------------------------------------------------------4--2----5---------------------


            That’s it, that’s the whole Flesh into Gear solo. You kinda have to play it by the beat to make it sound right.   
                                                         E-mail me if you have any questions at…… Smllypoopoo@aol.com



Comments