Cky - Flesh Into Gear Chords & Tabs

 

Flesh Into Gear Chords & Tabs

Cky Chords & Tabs

Version: 2 Type: Bass Tab 0 ratings
1 star 2 stars 3 stars 4 stars 5 stars
comments

Flesh Into Gear Bass Tab

             ______________________________________
            |            Artist : CKY              |
            |       Song: FLESH INTO GEAR          |
            |Album: INFILTRATE - DESTROY - REBUILD | 
            |        Tabbed by: aafs41             |
            | email: scream_double_r@hotmail.com   |
            |______________________________________|


|||----------------|---------------|----------------|----------------|
|4|----------------|---------------|----------------|----------------|
|4|--------------2-|4-4-4-4-4-4-4--|--------------2-|4-4-4-4-4-4-4-4-|
|||0-0-0-0-0-0-0---|-------------2-|0-0-0-0-0-0-0-0-|----------------|


|-----------------|----------------|3x
|----------------|---------------|
|--------------2-|4-4-4-4-4-4-4--|
|-0-0-0-0-0-0-0---|--------------2-|


|-----------------|----------------|3x
|----------------|---------------|
|----------------|---------------|
|-5-5-5-5-5-5-7-5-|4-4-4-4-4-4-2-0-|


|-----------------|----------------|3x
|----------------|---------------|
|--------------2-|4-4-4-4-4-4-4--|
|-0-0-0-0-0-0-0---|--------------2-|


|-----------------|----------------|3x
|----------------|---------------|
|----------------|---------------|
|-5-5-5-5-5-5-7-5-|4-4-4-4-4-4-2-0-|

[ Tab from: http://www.guitartabs.cc/tabs/c/cky/flesh_into_gear_btab_ver_2.html ]
||----------------|----------------|---------------|---------------|
||64-----64-4--46-|4------64-4--46-|46-----64-4--46|4--------------|
||--4-4----7--7---|-72-2----7--7---|--4-4----7--7--|-72-2---242---2|
||----------------|----------------|---------------|-------4---420-|


||----------------|----------------|64-------------|---------------|
||-------64-4--46-|47-----64-4--46-|-------64-4--46|4------64-4--46|
||76-------7--7---|--2-2----7--7---|--4-4----7--7--|-72-2----7--7--|
||--5-5-----------|----------------|---------------|---------------|

                                                     ~~
||----------------|----------------|---------------|6--4----------|
||46-----64-4--46-|4---------------|-------64-4--46|----6--4------|
||--4-4----7--7---|-72-2---242-----|76-------7--7--|------7--42---|
||----------------|-------4---4202-|--5-5----------|-----------42-|


|-----------------|----------------|3x
|----------------|---------------|
|----------------|---------------|
|-5-5-5-5-5-5-7-5-|4-4-4-4-4-4-2-0-|


|-----------------|----------------|3x
|----------------|---------------|
|--------------2-|4-4-4-4-4-4-4--|
|-0-0-0-0-0-0-0---|--------------2-|

[fadeout]
|-----------------|----------------|
|-----------------|----------------|
|---------------2-|4-4-4-4-4-4-4---|
|-0-0-0-0-0-0-0---|--------------2-|


|-----------------|----------------|
|-----------------|----------------|
|---------------2-|4-4-4-4-4-4-4---|
|-0-0-0-0-0-0-0---|--------------2-|



~: vibrato
remember.. 3x means to play it 4 times!
Comments