Cky - Fat Fuck Chords & Tabs

 

Fat Fuck Chords & Tabs

Cky Chords & Tabs

Version: 1 Type: Tab 0 ratings
1 star 2 stars 3 stars 4 stars 5 stars
comments

Fat Fuck Tab

This song is 100% correct. Cky uses a harmonizer in 
this song, so it might sound a little different in this tab. 
The harmonizer makes it sound more deep.
You should have Drop-D tuning for this song.

CkY(Camp Kill Yourself)-"Fat F**k"

h= hammer on
p= pull off
[ Tab from: http://www.guitartabs.cc/tabs/c/cky/fat_fuck_tab.html ]
Intro/verse- Repeat around 16x
------------------------------------------
------------------------------------------
------------------------------------------
------------------------------------------
---5---5-4h2p0-2-----2--------------------
-----0-----------0-4----------------------

Chorus- Repeat 4x
-------------------------------------
-------------------------------------
-------------------------------------
-------------------2-0---------------
--2---2---2----0-2-------------------
---234-234-234-----------------------

Then repeat the verse around 12x
Then repeat chorus until song ends

There is the tab for "Fat F**k"- by CKY
Any questions or comments then e-mail me at foolintrd22@aol.com


CKY ROCKS!!!
Comments