Cky - Familiar Realm Chords & Tabs

 

Familiar Realm Chords & Tabs

Cky Chords & Tabs

Version: 3 Type: Tab 0 ratings
1 star 2 stars 3 stars 4 stars 5 stars
comments

Familiar Realm Tab

   
-------------------------------------------------------------------------------
			     Familiar Realm - CKY
-------------------------------------------------------------------------------
Tabbed by: kima
Email:  yourmom@myhouse.sex

Tuning:  DGCFAD
[ Tab from: http://www.guitartabs.cc/tabs/c/cky/familiar_realm_tab_ver_3.html ]
D|------------------------------------------!--------------------------------|
A|------------------------------------------!--------------------------------|
F|------------------------------------------!--------------------------------|
C|----------------2--------2----------------!--------------------------------|
G|-2--4--------4-----4--2-----2--\9--2-2-2--!--------------------------------|
D|-------5--0---------------------0--0-0-0--!--------------------------------|
                   OR
  ------------------------------------------!
  ------------------------------------------!
  ------------------------------------------! 
  ------------------2--------2--------------!
  -2-h-4-p-0-----4-----4--2-----2---2-------!
  ------------0---------------------0-------!
 
D|---------------------------------------------------------------------------|
A|---------------------------------------------------------------------------|
F|---------------------------------------------------------------------------|
C|-2-2-2--2--------------1--2--1--2/4----4-4-4--4-----2--------2--4--2--4/6--|
G|-0-0-0-----0--4--0--4------------------2-2-2-----2-----2--4----------------|
D|---------------------------------------------------------------------------|

D|------------------------------------------------------!--------------------|
A|------------------------------------------------------!--------------------|
F|------------------------------------------------------!--------------------|
C|--------4/6--4--2-4-2------2--------------4/6--2------!--------------------|
G|-2-2-2-----------------4-4---4-4-4--2--4-----------2--!--------------------|
D|-0-0-0---------------------------------------------0--!--------------------|

D|--------------------------------------------------------------!------------|
A|--------------------------------------------------------------!------------|
F|--------------------------------------------------------------!------------|
C|-------------------------------------------7--------9---------!------------|
G|-4-4-4-4-4-4-4-4-4--6-6-6--7-7-7-7-7-7---------------------2--!------------|
D|-2-2-2-2-2-2-2-2-2--4-4-4--5-5-5-5-5-5--5-----5--7-----7---0--!------------|

             I'll do the rest some other time. I'll also update my other tabs
             soon !

| /  slide up
| \  slide down
| h  hammer-on
| p  pull-off
| ~  vibrato
| +  harmonic
| x  Mute note
Comments