Cky - Escape From Hellview Chords & Tabs

 

Escape From Hellview Chords & Tabs

Cky Chords & Tabs

Version: 8 Type: Tab 0 ratings
1 star 2 stars 3 stars 4 stars 5 stars
comments

Escape From Hellview Tab

Tuning: Whole Step Down     Effects: Octave; Heavy Metal Distortion; Equalizer (I think)
NOTE:Yeah ik the verse looks odd...it's the live verse!
 Main Riff A
|---------------------------------------------------------------------------------|
|---------------------------------------------------------------------------------|
|---------------------------------------------------------------------------------|
|-----9---------9-10-------5-4--7--5---5----9----7-9--------------9-----------9---|
|-------7----------------------------7--------5-------5--5-5--7-5---5---5/6--6-6--|
|-0-0------0-0--------0-0---------------------------------------------------------|

 Main Riff B
|---------------------------------------------------------------------------------|
|---------------------------------------------------------------------------------|
|---------------------------------------------------------------------------------|
|-----9---------9-10-------5-4--7--5---5----9----7-9--------------9-----------9---|
|-------7----------------------------7--------5-------5--7-5--5-5---5---5/6--6-6--|
|-0-0------0-0--------0-0---------------------------------------------------------|

Play Riff A, Then B, Then Riff A once more.


 Verse Riff A                           Verse Riff C
|-----------------------------------|  |-------------------------------------|
|-----------------------------------|  |-------------------------------------|
|-----------------------------------|  |-------------------------------------|
|---5-4--5-4-------2-4-----4-5------|  |----5-4--5-4------2-4----5-4---------|
|-------------5-3-------2------5----|  |--------------5-3-----2------5-------|
|-0-------------------------------0-|  |-0--------------------------------0--|
[ Tab from: http://www.guitartabs.cc/tabs/c/cky/escape_from_hellview_tab_ver_8.html ]
 Verse Riff B
|-----------------------------------------------------------------|   
|-----------------------------------------------------------------| 
|------------------------------2/4---4-2---2----2-4--2---2---2/4--|  
|---5-4--5-4-------2-4-----4-5-----------5---5---------5---5------|
|-------------5-3-------2-----------------------------------------|
|-0---------------------------------------------------------------|

Play Verse Riff A Then B
Then Verse Riff C, Then A
Then B, Then finally riff C

 Pre-Chorus 
|------------------------------------------------------------|
|------------------------------------------------------------|
|-----------------------------5-55-55-55-5--4-44-4---77------|
|-2-22-22-22-22-22-2--4-2-----5-55-55-55-5--4-44-4---77--55--|
|-2-22-22-22-22-22-2------3-2-3-33-33-33-3--2-22-2---55--55--|
|-0-00-00-00-00-00-0-------------------------------------33--|

|------------------------------------------------------------|
|------------------------------------------------------------|
|-----------------------------5-55-55-55-5--4-44-4---(7)-----|
|-2-22-22-22-22-22-2--4-2-----5-55-55-55-5--4-44-4---(7)-----|
|-2-22-22-22-22-22-2------3-2-3-33-33-33-3--2-22-2---(5)-----|
|-0-00-00-00-00-00-0-----------------------------------------|

Repeat Main Riff A Then Main Riff B

Then Play Verse Riff A, Then B, Then Finally C

Play Pre-Chorus 

Replay Main Riff A Then Riff B
^^^^^^^^^^^^^^^^^^^^^^^^^^^^^^
(Do this 2 times)

 Bridge Riff A
|----------------------------------------------|
|----------------------------------------------|
|----------------------------------------------|
|------10----------10-11---------6-5-8-6---6---|
|--8-8----8----8-8----------8-8----------8-----|   
|----------------------------------------------|

 Bridge Riff B                                  Play Whole Thing 3 Times
|----------------------------------------------|
|----------------------------------------------|
|-----------------------------------------(8)--|
|------10----------10-11---------6-5-8-6--(8)--|
|--8-8----8----8-8----------8-8-----------(6)--|
|----------------------------------------------|

Play Pre-Chorus 

Then Finally Play Main Riff A then B
^^^^^^^^^^^^^^^^^^^^^^^^^^^^^^^^^^
(Do This 2 Times as Well)

 End on this 
|------|
|------|
|------|
|-(2)\-|
|-(2)\-|
|-(0)\-|

key
/ = Slide up
\ = Slide Down
( ) = Let Ring

Enjoy this tab because I'm sending this to deron miller!!!! any questions or comments
E-mail me at Tonyhawksfan@hotmail.com or IM me on AIM at CollateralGtr1
Comments