Cky - Escape From Hellview Chords & Tabs

 

Escape From Hellview Chords & Tabs

Cky Chords & Tabs

Version: 1 Type: Bass Tab 0 ratings
1 star 2 stars 3 stars 4 stars 5 stars
comments

Escape From Hellview Bass Tab

gotta luv this song... decided to tab the bass for all those guys in bands that cant
find a half-decent bass tab.

Chorus/Bridge
G:|------------------------------------------|
D:|------------------------------------------|
A:|--------9---------9-10------5-4-7-5-0-5---|
E:|---0-0----7---0-0-------0-0---------------|
[ Tab from: http://www.guitartabs.cc/tabs/c/cky/escape_from_hellview_btab.html ]
Verse
G:|---------------------------------------|
D:|---------------------------------------|
A:|---------3----2------------3-----2-----|
E:|--0----------------0-------------------|

Pre-Chorus
G:|------------------------------------------|
D:|------------------------------------------|
A:|---------------5-5-5-5-4-4-4-4-4--7-7-----|
E:|-2-2-2-2-2-2-2------------------------5---|

just listen to the song a couple times for the order im to lazy to do it. so email
me if you have any comments, questions, or requests. still_standing555@hotmail.com
Comments