Cky - Dressed In Decay Chords & Tabs

 

Dressed In Decay Chords & Tabs

Cky Chords & Tabs

Version: 3 Type: Tab 0 ratings
1 star 2 stars 3 stars 4 stars 5 stars
comments

Dressed In Decay Tab

   
-------------------------------------------------------------------------------
			     DRESSED IN DECAY - CKY
-------------------------------------------------------------------------------
Tabbed by: Ian Barr

Tuning: Whole Step Down

Intro/Verse

e|----------------------------------|
B|----------------------------------|
G|----------------------------------|
D|----------------------5-5-----7-7-|
A|----------5-5-7-7-----------------|
E|--3-3-3-3---------3-3-----3-3-----|

e|----------------------------------|
B|----------------------------------|
G|----------------------------------|
D|------5-5-----7-7-----9-9-5-5-----|
A|--7-7-----7-7-----7-7---------7-7-|
E|----------------------------------|
[ Tab from: http://www.guitartabs.cc/tabs/c/cky/dressed_in_decay_tab_ver_3.html ]
e|--------------------------------------------------------------|
B|--------------------------------------------------------------|
G|------7-7-4-4-------------------------------------------------|
D|------------------5-5-----7-7-----5-5-----7-7-----9-9-5-5-----|
A|--3-3---------3-3-----3-3-----7-7-----7-7-----7-7---------7-7-|
E|--------------------------------------------------------------|

Pre-Chorus

e|---------------------------------------------------------|
B|---------------------------------------------------------|
G|----------1-1-----6-6-----6/8---------1-1----2-2-----4-4-|
D|------4-4-----4-4-----4-4---------4-4-----4-4----4-4-----|
A|--2-2-------------------------4-4------------------------|
E|---------------------------------------------------------|

Chorus

e|-------------------------------------------------------------------|
B|-------------------------------------------------------------------|
G|-------------------------------------4---6---6/8--------4----9---8-|
D|--------4---9---8------------------6------------------6------------|
A|------6-------------9---11---9-----------------------------9---9---|
E|--4-4-----4---7---7---7----7---0-0-----0---0------0-0--------------|


| /  slide up
| \  slide down
| h  hammer-on
| p  pull-off
| ~  vibrato
| +  harmonic
| x  Mute note
===============================================================================
Comments