Cky - Dont Hold Your Breath Chords & Tabs

 

Dont Hold Your Breath Chords & Tabs

Cky Chords & Tabs

Version: 1 Type: Bass Tab

Dont Hold Your Breath Bass Tab

Don't Hold Your Breath - CKY
[ Tab from: http://www.guitartabs.cc/tabs/c/cky/dont_hold_your_breath_btab.html ]
E|--3-3-3-3-5-6---1-1-1-1-1-1-------------1-3-3-3-3-3-3-3-|
A|--------------3-------------3-3-3-3-1-0-----------------|
D|--------------------------------------------------------|
G|--------------------------------------------------------|

E|--3-3-3-3-5-6---1-1-1-1-1-1-------------1-3-3-3-3-3-3-3-|
A|--------------3-------------3-3-3-3-1-0-----------------|
D|--------------------------------------------------------|
G|--------------------------------------------------------|

REPEAT