Cky - Disengage The Simulator Chords & Tabs

 

Disengage The Simulator Chords & Tabs

Cky Chords & Tabs

Version: 6 Type: Tab 0 ratings
1 star 2 stars 3 stars 4 stars 5 stars
comments

Disengage The Simulator Tab

   
*Eb Ab Db Gb Bb Eb*

Intro/Verses: w/ octaver, pm some

E5                              C#5
e-----------------------------------------------------------------|
b-----------------------------------------------------------------|
g-----------------------------------------------------------------|
d------------------------------------------------6-4--------------|
a----------------------------2--4-4-4-4-4---4-4------4-4------7-6-|
e-0--0-0-0-0-0-0-4-0-2-0-4-0------------------------------4-7-----|

Verse 1:

E5                        C#5
i can't expect you to see (me when i'm not around)
E5                        C#5
and my voice is destroyed (by confinement of sound)
E5                   C#5
i'm a human machine  (laced with hidden disease)
E5                         C#5
if the future looks bleak  (then you're connected to me)


Chorus:

A5                B5    G#5
flesh into gear myself appears dissected and pretentious
A5               B5    G#5
a simple sound a heavy sigh you'll win the whole world over
A5                     B5    G#5
you'll live in fear of being someone that you didn't want to
A5             B5   G#5
i realize your insecurities will get the best of you

Verse 2:

E5                   C#5
a traitor's embrace  (how foolish how wrong)
E5                      C#5
contained in one place  (anxiety spawns)
E5                 C#5
unopened re owned  (what's needed upscaeld)
E5                 C#5
digested in haled  (unwilling unwound)

Chorus:

Bridge/Solo:

e-----------------------------------------------------------------|
b-----------------------------------------------------------------|
g---------------------------------------------------------4-6-----|
d-6p4--6--6---6p4---4----4-6-4-----4--4---6p4---4-----4-6---------|
a------4--4-------7----7-------7---2--2-------7-----7-------------|
e-----------------------------------------------------------------|
[ Tab from: http://www.guitartabs.cc/tabs/c/cky/disengage_the_simulator_tab_ver_6.html ]
e-----------------------------------------------------------------|
b-----------------------------------------------------------------|
g-----------------------------------------------------------------|
d-6--6---6p4---4----4-6-4-----4--4--------------------------------|
a-4--4-------7----7-------7---2--2-----2-4-2-------2---7-6--------|
e------------------------------------4-------4-2-0----------------|

e-----------------------------------------------------------------|
b-----------------------------------------------------------------|
g---------------------------------------------------4-6-----------|
d--------6-4---4----4-6-4-----4--4---6-4---4----4-6---------------|
a-7--7-------7----7-------7---2--2-------7----7-------------------|
e-5--5------------------------------------------------------------|

e-----------------------------------------------------------------|
b-----------------------------------------------------------------|
g-----------------------------------------------------4-6---------|
d--6--6---6p4---4----4-6-4-----4--4---6p4---4-----4-6-------------|
a--4--4-------7----7-------7---2--2-------7-----7-----------------|
e-----------------------------------------------------------------|

e-----------------------------------------------------------------|
b-----------------------------------------------------------------|
g-----------------------------------------------------------------|
d-6--6---6p4---4----4-6-4-----4--4--------------------------------|
a-4--4-------7----7-------7---2--2-----2-4-2-------2---7-6--------|
e------------------------------------4-------4-2-0----------------|

e-----------------------------------------------------------------|
b-----------------------------------------------------------------|
g---------------------------------------------------4-6-----------|
d--------6-4---4----4-6-4-----4--4---6-4---4----4-6---------------|
a-7--7-------7----7-------7---2--2-------7----7-------------------|
e-5--5------------------------------------------------------------|

then

e-----------------------------------------------------------------|
b-----------------------------------------------------------------|
g-----------------------------------------------------4-6---------|
d--6--6---6p4---4----4-6-4-----4--4---6p4---4-----4-6-------------|
a--4--4-------7----7-------7---2--2-------7-----7-----------------|
e-----------------------------------------------------------------|

e-----------------------------------------------------------------|
b-----------------------------------------------------------------|
g-6~~~~-4---------------------------------------------------------|
d---------6-------4-----------------------------------------------|
a---------------7-------4-2---------------------------------------|
e---------------------------4-2-----------------------------------|

Chorus:

Riff as outro


--------------------------------------------------------------------------------
Comments