Cky - Derons Jam Chords & Tabs

 

Derons Jam Chords & Tabs

Cky Chords & Tabs

Version: 2 Type: Tab 0 ratings
1 star 2 stars 3 stars 4 stars 5 stars
comments

Derons Jam Tab

Artist: Deron
Song: Derons Jam cky4
Tuning: DGCFAD (whole step down)

Note: dont really need an all out big pedal for this one, just an octave with micro distortion. Have fun.

1|--------------------------------------------------------------|
2|--------------------------------------------------------------|
3|-7--2-0-2-----------------------------------------------------|
4|------------------2-0-2-----2-0-2------------2-3----------0-2-|
5|--------------------------------------------0-----------------|
6|-----------0-0-0--------0-0--------0-0-00-0------0-0-00-0-----|
[ Tab from: http://www.guitartabs.cc/tabs/c/cky/derons_jam_tab_ver_2.html ]
1|----------------------------------------------------------------|
2|----------------------------------------------------------------|
3|----------------------------------------------------------------|
4|-------2-0-2-----2-0-2-----------2-3-0----------2-0-2-------2-0-|
5|--------------------------------0-------------------------------|
6|-0-0-0-------0-0-------0-0-00-0--------0-0-00-0-------0-0-0-----|

1|---------------|
2|---------------|
3|-------7-2-0-2-|
4|---5-----------|
5|-3---3---------|
6|---------------| The Ending

now the fun part.

1|-----------------------------------------------------------|
2|-----------------------------------------------------------|
3|---------------------------------------------5-------------|
4|----------------0---------------0---------5----5-5-----7-5-|
5|-----7-10-----9-------7-10----9-------3-3---3---3--5-5-----|
6|-0-0------0-0-----0-0------0-0----0-0----------------------|

1|------------------------|
2|------------------------|
3|-7-2-0-2----------------|
4|------------------2-0-2-|
5|------------------------|
6|----------0-0-0---------|

there you go, knock yourself out.

questions or comments.
AIM- Misfits3388
Comments