Cky - Derons Jam Chords & Tabs

 

Derons Jam Chords & Tabs

Cky Chords & Tabs

Version: 1 Type: Tab 0 ratings
1 star 2 stars 3 stars 4 stars 5 stars
comments

Derons Jam Tab

   
Deron’s Jam - CKY
CKY2K Movie

Eb Ab Db Gb Bb Eb

*this song is now known as “inhuman creation station”, from cky3.
in the movie it starts right after bam ‘n bran make fun of “naked dave”’s weird looking 
balls, after the credits......lolz”

Fade in....
w/ octaver set to harmonize 1 oct. lower

e-----------------------------------------------------------------
b-----------------------------------------------------------------
g-----------------------------------------------------------------
d-----------------------------------------------------------------
a-----------------------------------------------------------------
e---------------------------------------------------0-0-0---0-0-0-

e-----------------------------------------------------------------
b-----------------------------------------------------------------
g-----------------------------------------------------------------
d----5--7p5------------------------4--5p4\2p0----/9-7-5-4-5-------
a-7---------7p5----------------/5--------------2------------------
e-0-------------0-0-0---0-0-0-------------------------------------

e-----------------------------------------------------------------
b-----------------------------------------------------------------
g-----------------------------------------------------------------
d-9--5--7p5------------------------4--5p4\2p0----/9-7-5-4-5-------
a-7---------7p5----------------/5--------------2------------------
e---------------0-0-0---0-0-0-------------------------------------
[ Tab from: http://www.guitartabs.cc/tabs/c/cky/derons_jam_tab.html ]
e-----------------------------------------------------------------
b-----------------------------------------------------------------
g----------------------------7-11/12--------------------7-11/12---
d----5--7p5--------------7h9------------------------7h9-----------
a-7---------7p5---------------------------------------------------
e---------------0-0-0----------------0-0-0---0-0-0----------------

e-----------------------------------------------------------------
b-----------------------------------------------------------------
g--------------------7-11/12---------------------7-11/12----------
d----------------7h9-------------------------7h9------------------
a-----------------------------------------------------------------
e-0-0-0---0-0-0---------------0-0-0---0-0-0-----------------------

e-----------------------------------------------------------------
b-----------------------------------------------------------------
g--------------------7-11/12---------------------7-11/12----------
d----------------7h9-------------------------7h9------------------
a-----------------------------------------------------------------
e-0-0-0---0-0-0---------------0-0-0---0-0-0-----------------------

e-----------------------------------------------------------------
b-----------------------------------------------------------------
g--------------------7-11/12---------------------7-11-------7-11--
d----------------7h9-------------------------7h9--------7h9-------
a-----------------------------------------------------------------
e-0-0-0---0-0-0---------------0-0-0---0-0-0-----------------------

C5..........E5


i figured this out by myself, with the transkriber, of course
sounds right enough to me, if not, meh what can ya do ?

peace

trevor jones
timmy91199@yahoo.ca
Comments